Guitaretab - guitar tabs
Song name
# A B C D E F G H I J K L M N O P Q R S T U V W X Y Z

Saint Seiya - Pegasus Fantasy tab

Saint Seiya-Pegasus Fantasy
e---3-1----------------------3-1---4--------1--3----3-1-1--|
B--4----3-----1-4-3------1-4-----3------3-4--------------4-|
G-5-------3-1--------3-0----------3---5--------------------|
D----------------------------------------------------------|
A----------------------------------------------------------|
E----------------------------------------------------------|

e-1-------------------1----1-3---3--3-6-7-------3---3-1-1--|
B---4-3---1-3-4---3-4----4------------------4-6----------4-|
G----------------------------------------5-7---------------|
D----------------------------------------------------------|
A----------------------------------------------------------|
E----------------------------------------------------------|

e-1--------------------3-1------------4--3-3-1-3--1-1------|
B---4-3---1-3-4--3-1-4-----4--3-3--1-----------------------|
G--------------------------------3-------------------3-3-3-|
D----------------------------------------------------------|
A----------------------------------------------------------|
E----------------------------------------------------------|
[ Tab from: http://www.guitaretab.com/s/saint-seiya/185493.html ]
e-6-4-3-1--------------------1----1---------------1--3-3-|
B--------4--1-3-4--3-1-4--3-1--4-3------0-1-3--4---------|
G----------------------------------3-3-3-----------------|
D--------------------------------------------------------|
A--------------------------------------------------------|
E--------------------------------------------------------|

e-1-3-1----------3------1-1--1-6--4-3-3-1-3--1-3---1--3-3-|
B------4-3--1--1----3-4---------------------4-----4-------|
G---------------------------------------------------------|
D---------------------------------------------------------|
A---------------------------------------------------------|
E---------------------------------------------------------|

e-1-3--1----------3-------1-1------1-1---4-3-1-3----8--8--8---|
B--------4-3--1-1-----3-4------3-4----------------------------|
G-------------------------------------------------------------|
D-------------------------------------------------------------|
A-------------------------------------------------------------|
E-------------------------------------------------------------|

*Note: When you get to a note that is supposed to sound longer, you can bend
it if you like the sound of it.
Related for Pegasus Fantasy tab