Guitaretab - guitar tabs
Song name
# A B C D E F G H I J K L M N O P Q R S T U V W X Y Z

Salif Keita - Folon tab

Folon
Salif Keita

Usual tuning

p : pull off
h : hammer on
\ : slide

Intro

e:--7---7p5------------------------|3-----3p2p0---------------|
B:-----------8--7--7h8p7-7p5--5\3--|------------3p2p0--0h1p0--|
G:---------------------------------|--------------------------|
D:---------------------------------|--------------------------|
A:---------------------------------|--------------------------|
E:---------------------------------|--------------------------|


                                                           
Amin						Emin
[ Tab from: http://www.guitaretab.com/s/salif-keita/82380.html ]
e:---------0--3--|3p2-2p0---------------------|-----------|
B:--------1------|---------3--3p1--0-------0--|--0--0--0--|
G:0h2----2-------|--------------------0h2-----|-0--0--0---|
D:------2--------|----------------------------|-----------|
A:-----0---------|----------------------------|2--2--2----|
E:---------------|----------------------------|-----------|



			Bmin	Emin			Bmin

e:--3p0--5--3--2-----|----2----3-0---|--5--3--2----|----2-----|
B:--0-------------3--|---3-3---------|-----------3-|---3-3----|
G:--0----------------|--4---4--------|-------------|--4---4---|
D:--2----------------|-4-----------2-|-------------|-4-----4--|
A:--2----------------|2--------------|-------------|2---------|
E:0-0----------------|---------------|0------------|----------|


                                                           
Amin						  Emin		

e:------------0----|3--3p2--0--------------------|---------|
B:-----------1-1---|----------3--3p1--0-------0--|--0--0--0|
G:----------2---2--|---------------------0h2-----|-0--0--0-|
D:-----0-2-2-------|-----------------------------|---------|
A:0-2-3---0--------|-----------------------------|2--2--2--|
E:-----------------|-----------------------------|---------|


...etc, 
Folon chords by Salif Keita