Song name
# A B C D E F G H I J K L M N O P Q R S T U V W X Y Z

Salt The Wound - The Beginning tab

100% positive this is correct. Tuning is Drop A#.

. = palm mute

C--|-------------------------|
G--|-------------------------|
D#-|-------------------------|
A#-|-------------------------|
F--|--------5h85h8-----4-----|
A#-|-5h85h8--------4-7---7---|
                   . .

C--|-------------------------|-------------------------|
G--|-------------------------|-------------------------|
D#-|-------------------------|-------------------------|
A#-|----------------4-3------|------------------4-5-0--|
F--|----------------4-3------|------------------4-5-0--|
A#-|-5h85h85h85h8-r-4-3------|---5h85h85h85h8-r-4-5-0--|
|

The "r", or rest, is only about a split second. Too lazy to tab out the open notes as 
a easy pattern to figure out. Any questions or comments, AIM = x Itz Rick x
Tap to rate this tab
 
# A B C D E F G H I J K L M N O P Q R S T U V W X Y Z