Song name
# A B C D E F G H I J K L M N O P Q R S T U V W X Y Z

Salta La Banca - Busqueda tab

B--3--
G--0--
D--2--
A--3--
E--0--

Estos son los Riff para el primer verso. La intro es algo parecido,
pero juega con los armónicos, y yo no los se XD


Riff 1
      D2
e------------------------0-----------|
B--------3-------------3---3---------|
G----0/2---2---2---0/2-------2---2---|
D--0---------0---0-------------0---0-|
A------------------------------------|
E------------------------------------|


Riff 2
      C
e------------------------0-----------|
B--------1-------------1---1---------|
G------0---0---0-----0-------0-------|
D----2-------2-----2-----------2-----|
A--3-------------3-------------------|
E------------------------------------|


Riff 3
      C             Bm                  C(Con cejilla)
e--------------------2-----------2---------3---3--|
B--------1-------------3-----------3---------5-5--|
G------0---0-------4-----4-----4---------5-----5--|
D----2-------2---4-----------4---------5-------5--|
A--3-----------2-----------2---------3---------3--|
E-------------------------------------------------|



Riff1          Riff2
Tanto por ver y tanto por hacer.

Riff1          Riff2
Y tanto tiempo para malgastar.

Riff1      Riff2
Mucho pez, poco cerebro.

Riff1                Riff3
Un esquema incuestionable: Le dicen sociedad.


Aca pueden seguir punteando, si no, rasgueen!

D            C
  Hay tanto, tanto implícito.

D                 C
  Tantos tableros por patear.

D            C
  Mucho pez, poca carnada.

D                     C
  En una cuenta regresiva

Bm                Cadd9
  A la que llaman vida.

Tanto hecho por las campañas.
Como hipocresía para derrochar.
Mucho pez, pero poco salmón.
Mil sonrisas, dos mil besos en formato televisión.

(Acá mete una vez mas el Bm - Cadd9)

D          A      G          A
  Puedo vivir buscando la belleza

D          A                G            A
  En las palabras con que se expresa mi alma.

D          A         Cadd9                G
  No resignarme y seguir soñando, seguir soñando

D            A     F         G       A    (Estos ultimos dos, con cejilla)
  Aunque mis sueños hoy solo sean pesadillas.


Solo Saxo: Vuelve a los acordes de la primera parte)

(Sigue con primera parte)

Tanto personaje nefasto
como amnesía en la sociedad.
Poco pez, mucho tiburón.
Tengo las manos limpias: Las pienso usar.

Veo tantos Poncio Pilatos
Que hoy sería uno más.
Mucho pez, tanto anzuelo
Si hay memoria, no dejemos olvidar.

(Acordes Estribillo)

Puedo vivir buscando la belleza
En las palabras con que se expresa mi alma.
No resignarme y seguir soñando

D            A    F        G         D
  Aunque mis sueños sólo sean pesadillas.

Podré morir sin encontrar jamás
Eso que eclipse mis ganas de seguir buscando.
Porque en la lucha se refleja el alma.D
D          A   F G              D
  Y en el alma,    la integridad.

http://www.saltalabancaweb.com.ar/
Tap to rate this tab
# A B C D E F G H I J K L M N O P Q R S T U V W X Y Z