Guitaretab - guitar tabs
Song name
# A B C D E F G H I J K L M N O P Q R S T U V W X Y Z

Sam Chatmon - Thats My Gal tab

                                          That's My Gal


                                                                                         
Chatmon
Track 1

Here's the YouTube link http://www.youtube.com/watch?v=MX9eg3_rfSk  Some other Chatmon 
have been removed for cpyright reasons (?). Hopefully this will stilll be there when you 
Not perfect but a "nuts and bolts" arrangement. Guessing on some of the lyrics.

      That's my   gal                          Oh       Shake it   now
      See    that girl with  thered  dress on  She's    got   good *    *    show's you 
  Now
      Hey    now  ma   ma       look at    sis she's    In    the  back yard doin'  the twist

C#||---------1------------------1--------------------|--------0--------------0--------------------|
G#||---------0------------------0--------------------|--------1--------------1--------------------|
E ||---------0----0----2----(2)-0----2-----0---------|--------0----0----2----0------2---0---------|
B ||--0-------------------------0--------------1-----|--2-----2--------------2----------------2---|
F#||-------------------------------------------------|--------------------------------------------|
C#||-------------------------------------------------|--------------------------------------------|


  That's my   Gal                           Oh       stir it   now                       
Well  I
  see    that girl with  thered  dress on   She's    got  good *    *    show's you boy  
Well  I
  Hey    now  ma   ma       look at    sis. She's    In   the  back yard doin'  the 
Well  I
[ Tab from: http://www.guitaretab.com/s/sam-chatmon/180306.html ]
---------1------------------1---------------------|-------0--------------0------------------------|
---------0------------------0---------------------|-------1--------------1------------------------|
---------0----0----2----(2)-0----2-----0----------|-------0----0----2----0------2---0-------------|
--0-------------------------0---------------1-----|--2----2--------------2----------------2----(2)|
--------------------------------------------------|-----------------------------------------------|
--------------------------------------------------|-----------------------------------------------|


  ain't gonna take no bo dy's now I'll    stir it with my self
  ain't gonna take no bo dy's now I'll    try  it for  my self
  ain't gonna take no bo dy's now I'll

--1-----------1----------3--------0----|--2----2--1----1-------3--0------||
--1-----------1----------1--------1----|-------1-------0-------1--1------||
--2-----------1-------0--0--------0----|-------2-------0--0----0--0-----*||
--3-----3-----1----1----------2---2----|-------0-------0----------2-----*||
---------------------------------------|---------------------------------||
---------------------------------------|---------------------------------||


  stir it with my self

--2----2--1----1-------3--2--1--|--0----------------------|--0---------||
-------1-------0----------------|-----3--1----------------|--1---------||
-------2-------0--0-------------|-----------2-------------|--0---------||
-------0-------0----------------|-------------------------|--2---------||
--------------------------------|-------------------0-----|--3---------||
--------------------------------|----------------3-----3--|------------||
Advertisement will be closed in 10 seconds