Sami Anttila - Never Again tab

Sami Anttila - Never Again

tempo 180bmp

Tuning Dropped C
C G C F A D

Riff 1 (Intro, prechorus, outro)

|-----------------------------------|
|-----------------------------------|
|-----------------------------------|
|-----------------------------------|
|-6-5---5-4---4-3---3-2---2-1-------|
|-----0-----0-----0-----0-----0-0-0-|


|--------------------------------|
|--------------------------------|
|--------------------------------|
|-6-5---5-4---4-3---3-2---2-1----|
|-----------------------------0--|
|-----0-----0-----0-----0-----0--|


Riff 2 (verse) 
Note: Downpick only on open string

|----------------------------------|
|----------------------------------|
|----------------------------------| 3x
|-1----------------------------1h2-|
|-1-0-0-0-0-0-0-0----4-1---3---1h2-|
|---0-0-0-0-0-0-0--0-----0---0-----|


                               AH
|----------------------------------|
|----------------------------------|
|----------------------------------|
|----------------------------------|
|-1-0-0-0-0-0-0-0----4-1---3---2~--|
|-1-0-0-0-0-0-0-0--0-----0---0-----|


Riff 3 (between verses 1 and 2)

|------------------------------|
|------------------------------|
|------------------------------| 2x
|------------------------------|
|-----4-----3-----2-----1--0-0-|
|-0-1---0-1---0-1---0-1----0-0-|



Riff 4 (Chorus)



|--------------------------------|
|--------------------------------|
|--------------------------------|
|--------------------------------|
|-0h1-0-0-0-0-0-0--0h1--1/3--3/4-|
|-0h1-0-0-0-0-0-0--0h1--1/3--3/4-|

|--------------------------------|
|--------------------------------|
|--------------------------------|
|--------------------------------|
|-0h1-0-0-0-0-0-0--4/3--3/1--1/3-|
|-0h1-0-0-0-0-0-0--4/3--3/1--1/3-|


Riff 5 (after 1st chorus)

|-------------------------------------------|
|-------------------------------------------|
|-------------------------------------------|
|-------------------------------------------|
|-1-0-0-0---0-0-0--0-0--0--4/3-0--1-0--1/3--|
|-1-0-0-0---0-0-0--0-0--0--4/3-0--1-0--1/3--|


Riff 6 (After 2nd chorus)

|--------------------------------------------------|
|--------------------------------------------------|
|--------------------------------------------------|
|-5/7---------7/8---------8/11--------12/11--------|
|-3/5---------5/6---------6/9---------10/9---------|
|-----0-0-0-0-----0-0-0-0-----0-0-0-0------0-0-0-0-|

|--------------------------------------------------|
|--------------------------------------------------|
|--------------------------------------------------|
|-5/7---------7/8---------8/7---------12/11--------|
|-3/5---------5/6---------6/5---------10/9---------|
|-----0-0-0-0-----0-0-0-0-----0-0-0-0------0-0-0-0-|


Riff 7 (clean guitar)

|-------------------------------------3-2-3--6-5-6--11-10-11-|
|-----3---3-4-4/7--4h7p4-3-4---1-3-4-------------------------|
|---2---2--------------------2-------------------------------|
|-0----------------------------------------------------------|
|------------------------------------------------------------|
|------------------------------------------------------------|


|---------3-2-------------------------11-10-11--15-14-15--18-17-18-|
|-----3-4-----3--3h4p3/-1--3---1-3-4-------------------------------|
|---2------------------------2-------------------------------------|
|-0----------------------------------------------------------------|
|------------------------------------------------------------------|
|------------------------------------------------------------------|


Riff 8 (solo rhythm)

|----------------------------------|
|----------------------------------|
|-7-------------5/7---7/8--8/11----|
|----------------------------------|
|-5-------------3/5---5/6--6/9-----|
|---0-0-0-0-0-0-----0--------------|


|----------------------------------|
|----------------------------------|
|-11------------12/11--11/8--8/11--|
|----------------------------------|
|-9-------------10/9----9/6--6/9---|
|---0-0-0-0-0-0------0-------------|


Song structure:

1x Riff 1 (intro)
2x Riff 2 (verse 1)
1x Riff 3
2x Riff 2 (verse 2)
1x Riff 1 (prechorus)
4x Riff 4 (chorus)
4x Riff 5
2x Riff 2 (verse 3)
1x Riff 1 (prechorus)
4x Riff 4 (chorus)
4x Riff 6
1x Riff 7 (clean guitar)
1x Riff 7 (you can play the clean guitar during the solo)
4x Riff 8 (solo rhythm)
4x Riff 8
4x Riff 4 (chorus)
0.5x Riff 6 (play only the first part of the riff here)
0.5x Riff 1 (play only the first part of the riff here)

Tap to rate this tab
 
# A B C D E F G H I J K L M N O P Q R S T U V W X Y Z