Song name
# A B C D E F G H I J K L M N O P Q R S T U V W X Y Z

Sampaguita - Nosi Balasi tab

 
 

 Song title:Nosi Balasi
     Artist:Sampaguita
     Tuning:Standard

 /-slide
 p-pull-off
 b-bend
 v-vibrate
 h-hammer

 Timingan yung lang yung pagslide sa bandang simula
 tuloy tuloy na yan sensya na kung mali mali yung sa
 huli at minadali ku lang yung pagkapa nito..

 Solo:
 
 timingan n'yo lang dito..

 |-7-3-5-5//7--10p8-10-10-8//12--17b-16b17-16b17--22b--20--|
 |---------------------------------------------------------|
 |---------------------------------------------------------|
 |---------------------------------------------------------|
 |---------------------------------------------------------|
 |---------------------------------------------------------|

 |-19-15--12p10/12--15--12p12p--10--8/10p8--15-12--15/19--|
 |--------------------------------------------------------|
 |--------------------------------------------------------|
 |--------------------------------------------------------|
 |--------------------------------------------------------|
 |--------------------------------------------------------|
                      dito na yung part ng solo na mabilis..
 |-----10v-------15v-|-------------------------------------------------|
 |-------------------|----------------------------------------------5--|
 |-9b-------14b------|-9h10-9h10--7h9h10p9h10p9-7--9p7p5-------5h7-----|
 |-------------------|------------------------------------7-7----------|
 |-------------------|-------------------------------------------------|
 |-------------------|-------------------------------------------------|

 |-13p12-10-12-13-12h13p12-10--12h13p12-15--13-12-13--10h12--8h10---------|
 |------------------------------------------------------------------------|
 |------------------------------------------------------------------------|
 |------------------------------------------------------------------------|
 |------------------------------------------------------------------------|
 |------------------------------------------------------------------------|
 continue..
 |------------------------------------------------------------------------|
 |-12h13-10h12-8h10-------------------------------------------------------|
 |-------------------12h13-10h12-8h10-------------------------------------|
 |-------------------------------------10h12-9h10-7h9-5h7-5----9b---------| 
 |----------------------------------------------------------7b------------|
 |------------------------------------------------------------------------|
 dito yung last..
 |-13-12----10-13----12----13----12----13--13-12----10-13----12----13-----|
 |-------13-------13----13----13----13-----------13-------13----13--------|
 |------------------------------------------------------------------------| 
 |------------------------------------------------------------------------|
 |------------------------------------------------------------------------|
 |------------------------------------------------------------------------|
 continue..
 |----12----13--13-12----10-13----12----13----12----12--13-12----10-13----|
 |-13----13-----------13-------13----13----13----13-----------13----------|
 |------------------------------------------------------------------------| 
 |------------------------------------------------------------------------|
 |------------------------------------------------------------------------|
 |------------------------------------------------------------------------|
 continue..
 |----12----13----12----13--13-12----10-13----12----13----12----13--13----|
 |-13----13----13----13-----------13-------13----13----13----13-----------|
 |------------------------------------------------------------------------|
 |------------------------------------------------------------------------|
 |------------------------------------------------------------------------|
 |------------------------------------------------------------------------|
 continue..
 |-12----10-13----12----13----13----12------------------------------------|
 |----13-------13----13----13----13---------------------------------------|
 |------------------------------------------------------------------------|
 |------------------------------------------------------------------------|
 |------------------------------------------------------------------------|
 |------------------------------------------------------------------------|

 hanggang d'yan na lang muna kulang pa yan 
 meron pa yang kasunod kaya lang hindi ko na
 alam ako lang kasi mag-isa kumapa n'yan..

 




Tap to rate this tab
 
# A B C D E F G H I J K L M N O P Q R S T U V W X Y Z