Song name
# A B C D E F G H I J K L M N O P Q R S T U V W X Y Z

Samuel Harfst - Mit Dir Kommt Der Sommer tab

Titel: Mit dir kommt der Sommer
Album: Schritt Zurück
Interpret: Samuel Harfst

Standard Tuning

Verse:
e-----------------------------------------------------------------|
B-----9-------9-------3-------3-------3-------3-------3-------3---|
G---8---8---8---8---0---0---0---0---0---0---0---0---0---0---0---0-|
D-----------------------------------------------------------------|
A-8-------8-------3-------3-------5-------5-------5-------5-------|
E-----------------------------------------------------------------|4x

Chorus:
e-----------------------------------------------------------------|
B-----9-------9-------3-------3-------3-------3-------3-------3---|
G---8---8---8---8---0---3---0---0---0---0---0---0---0---0---0---0-|
D-----------------------------------------------------------------|
A-8-------8-------3-------3-----------------------5-------5-------|
E---------------------------------3-------3-----------------------|4x

Eigentlich ist das alles was man braucht. In der Bridge ist wie in der Strophe, 
bloß zusammen gezupft
Tap to rate this tab
 
# A B C D E F G H I J K L M N O P Q R S T U V W X Y Z