Sanctions - Tragedy tab

--------------------------------------------------------------------------
                           TRAGEDY - sanctions
--------------------------------------------------------------------------

Band: Sanctions (www.myspace.com/sanctions1)
Album: Home Sweet Home (Meat Cube Label, 2007)

Tabbed by Kyle T.
Contact: pants_me@hotmail.com
Site: http://marriedtotherails.wordpress.com

Standard tuning (EADGbe)

Legend:

  .   - Palm mute                            o     - Repeat bar
  x   - Dead note                            o
  _   - Let ring                           _______
  %   - Rest                              |1,2...  - Endings for repeats
  /   - Slide up                             #     - Harmonic
  \   - Slide down                           Nx    - Number of repeats
  h   - Hammer on                            v     - Vibrato
  b   - bend                                 *     - Staccato
  r   - release                              n     - Bar number
 (x)  - Note tied over from previous bar     ^     - Pitch harmonic

---

Note: ...Take responsibility for your actions!

---


Intro:

4/4
e|----------------|----------------|----------------|----------------|
b|----------------|----------------|----------------|----------------|
G|-9--------------|----------------|-5--------------|-4--------------|
D|----------------|----------------|----------------|----------------|
A|-7--------------|----------------|-3--------------|-2--------------|
E|----------------|----------------|----------------|----------------|

e|----------------|----------------|----------------|----------------|
b|----------------|----------------|----------------|----------------|
G|-9-9--9-9-9--9--|-9-9--9-9-9--9--|-5-5--5-5-5--5--|-4-4--4-4-4--4--|
D|----------------|----------------|----------------|----------------|
A|-7-7--7-7-7--7--|-7-7--7-7-7--7--|-3-3--3-3-3--3--|-2-2--2-2-2--2--|
E|----------------|----------------|----------------|----------------|


Verse:

e|----------------|----------------|----------------|----------------|
b|----------------|----------------|----------------|----------------|
G|o9-9--9-9-9--9--|-9-9--9-9-9--9--|-5-5--5-5-5--5--|-4-4--4-4-4--4-o|
D|o---------------|----------------|----------------|---------------o|
A|-7-7--7-7-7--7--|-7-7--7-7-7--7--|-3-3--3-3-3--3--|-2-2--2-2-2--2--|
E|----------------|----------------|----------------|----------------|

  The sun is screaming, over a wasteland of gray and yellow.
  Dead plants mix with dead [bank] accounts.


Post-verse:
  
e|----------------|----------------|-7-------7------|-8-------8------|
b|-8-------8------|-10------10-----|----------------|----------------|
G|o----9-------9--|-----9-------9--|-----9-------9--|-----9-------9-o|
D|o---------------|----------------|----------------|---------------o|
A|----------------|----------------|----------------|----------------|
E|----------------|----------------|----------------|----------------|

  And every time you feel it running through your veins, there comes
  the realization of your unending pain.


Verse 2:

e|----------------|----------------|----------------|----------------|
b|----------------|-8-8--8-8-8--8--|13-13-13-1313-13|1111-111111-11--|
G|-9-9--9-9-9--9--|----------------|----------------|----------------|
D|----------------|-5-5--5-5-5--5--|10-10-10-1010-10|-9-9--9-9-9--9--|
A|-7-7--7-7-7--7--|----------------|----------------|----------------|
E|----------------|----------------|----------------|----------------|

e|----------------|----------------|----------------|----------------|
b|----------------|-8-8--8-8-8--8--|13-13-13-1313-13|1111-111111-----|
G|-9-9--9-9-9--9--|----------------|----------------|-------------%--|
D|----------------|-5-5--5-5-5--5--|10-10-10-1010-10|-9-9--9-9-9-----|
A|-7-7--7-7-7--7--|----------------|----------------|----------------|
E|----------------|----------------|----------------|----------------|

  There is no hope, there is no pity.
  There is no hope, this is the end.


Post-verse:
  
e|----------------|----------------|-7-------7------|-8-------8------|
b|-8-------8------|-10------10-----|----------------|----------------|
G|o----9-------9--|-----9-------9--|-----9-------9--|-----9-------9-o|
D|o---------------|----------------|----------------|---------------o|
A|----------------|----------------|----------------|----------------|
E|----------------|----------------|----------------|----------------|

  And every time you feel it running through your veins, there comes
  the realization of your unending pain.


Verse 3:

e|----------------|----------------|----------------|----------------|
b|----------------|-8-8--8-8-8--8--|----------------|----------------|
G|o9-9--9-9-9--9--|----------------|-5-5--5-5-5--5--|-4-4--4-4-4--4-o|
D|o---------------|-5-5--5-5-5--5--|----------------|---------------o|
A|-7-7--7-7-7--7--|----------------|-3-3--3-3-3--3--|-2-2--2-2-2--2--|
E|----------------|----------------|----------------|----------------|

  There is no hope, there is no pity.
  There is no hope, this is the end.


Breakdown:

e|----------------|----------------|----------------|----------------|
b|----------------|----------------|----------------|----------------|
G|o14-------------|----------------|-17-------------|-16-------------|
D|o---------------|----------------|----------------|----------------|
A|-12-------------|----------------|-15-------------|-14-------------|
E|----------------|----------------|----------------|----------------|

e|----------------|----------------|----------------|----------------|
b|----------------|----------------|----------------|----------------|
G|-14-------------|----------------|-12-------------|-9-------------o|
D|----------------|----------------|----------------|---------------o|
A|-12-------------|----------------|-10-------------|-7--------------|
E|----------------|----------------|----------------|----------------|

  Apocalypse. No turning back. 
  This is the end.


Outro:

e|----------------|----------------|----------------|----------------|
b|----------------|----------------|----------------|----------------|
G|o9-9--9-9-9--9--|-9-9--9-9-9--9--|-9-9--9-9-9--9--|-9-9--9-9-9--9--|
D|o---------------|----------------|----------------|----------------|
A|-7-7--7-7-7--7--|-7-7--7-7-7--7--|-7-7--7-7-7--7--|-7-7--7-7-7--7--|
E|----------------|----------------|----------------|----------------|

e|----------------|----------------|----------------|----------------|
b|-8-8--8-8-8--8--|-8-8--8-8-8--8--|-9-9--9-9-9--9--|-8-8--8-8-8--8--|
G|----------------|----------------|----------------|---------------o|
D|-5-5--5-5-5--5--|-5-5--5-5-5--5--|-7-7--7-7-7--7--|-5-5--5-5-5--5-o|
A|----------------|----------------|----------------|----------------|
E|----------------|----------------|----------------|----------------|

e|----------------|----------------||
b|----------------|----------------||
G|-9------9-------|-9\-------------||
D|----------------|----------------||
A|-7------7-------|-7\-------------||
E|----000----000--|----------------||
      ...    ...

   Take responsibility for your actions. You can do it. No one else can.
   Take responsibility for your actions. You can do it. No one else can.

Tap to rate this tab
 
# A B C D E F G H I J K L M N O P Q R S T U V W X Y Z