Guitaretab - guitar tabs
Song name
# A B C D E F G H I J K L M N O P Q R S T U V W X Y Z

Sanctuary - Battle Angels tab

This is a great song by a neglected band, which is amazing because half of the band went 
to become nevermore, which is some great music.
(Note: Jeff Loomis didn't write this, so it's on a six string)
NOTE!!!!!!: This is actually in normal C#, but they don't have that option. Just pretend.
\ = slide
^ = pinch harmonic
* = palm mute
~ = vibrato (this guy uses wide vibrato)

Intro:

|-------------------------------------------------------------|
|-------------------------------------------------------------|
|-------------------------------------------------------------|
|-------------------------------------------------------------|
|-------------------------7------------------------7--10\7----|
|---5--5-5-5--5-5-5--5-5--5--5--5-5-5--5-5-5--5-5--5--8\-5----|
    *  * * *  * * *  * *     *  * * *  * * *  * *

Guit. #2 plays this over it:
|-------------------------------------|
|-------------------------------------|
|-------------------------------------|
|------7--7-7-7--7-7-7--7-7-7---------|
|-------------------------------------|
|-------------------------------------|
       *  * * *  * * *  * * 

|--------------------------|
|--------------------------|
|--------------------------|
|-7--7-7-7--7-7--7/10\7----|
|--------------------------|
|--------------------------|
  *  * * *  * *  
Make sure to "bite the pick" a little to get the sound achieved on the CD.

Lead to verse:
[ Tab from: http://www.guitaretab.com/s/sanctuary/93309.html ]
|----------------------------------------------------|
|----------------------------------------------------|
|----------------------------------------------------|
|------------7------8--8-8-8-7-5----------7----------|
|----0--0-0----0-0----------------0--0-0-----0-0-----|
|----------------------------------------------------|
        * *    * *  *  * * * *       * *     * *

|----------------|
|----------------|
|---5------------|
|-------8-7-8----|
|----------------|
|----------------|
            ^

4th time around, replace second set with:

|---------------------------------------------|
|---------------------------------------------|
|-5-------------------------------------------|
|---8-7-8-7-5---------------------------------|
|--------------8-7-5--------------------------|
|---------------------5~~---------------------|

Verse:

|--------------------------------|
|--------------------------------|
|--------------------------------|
|--7-------8-------7-------7/5---|
|----0-0-0---0-0-0---0-0-0----0-0|
|--------------------------------|
     * * *   * * *   * * *    * *

|--------------------------------|
|--------------------------------|
|--------------------------8-----|
|--7-------8-------7-------8-----|
|----0-0-0---0-0-0---0-0-0-6-----|
|--------------------------------|
     * * *   * * *   * * *

The only other riff I believe is different is the riff that comes after the sped up
riff:

|---------------------------------------|
|---------------------------------------|
|---------------------------------------|
|-3\2-----------------------------------|
|-1\0-0-0-0-0-0-0-1\0--3\1--5\3--6\5----|
|---------------------------------------|
      * * * * * *

Solo is a work of art but I'm not really good at that sort of thing.
Related for Battle Angels tab