Song name
# A B C D E F G H I J K L M N O P Q R S T U V W X Y Z

Sandals - Endless Summer Theme tab

Help us improve GuitareTab! Take a short survey!
2nd guitar
----2-2-----------------------------------------------------|
----3-3-----3--3--------------------------------------------|
--3-----2---0-----------------------------------------------|
----------3-------2-----------------------------------------|
------------------------------------------------------------|
------------------------------------------------------------|
This is played by the 2nd guitar for the whole song

lead guitar
------------------------------------------------------------|
------------------------------------------------------------|
------------------------------------------------------------|
------------------------------------------------------------|
-5-0-5-7---7--9-5-7h9p7-------------------------------------|
---------8--------------------------------------------------|

------------------------------------------------------------|
------------------------------------------------------------|
------------------------------------------------------------|
------------------------------------------------------------|
-5-0-5-7---7--9-5-7h9p7-------------------------------------|
---------8--------------------------------------------------|

------------------------------------------------------------|
-12-----12--14------14--16hold------------------------------|
-----13---------15------------------------------------------|
------------------------------------------------------------|
------------------------------------------------------------|
------------------------------------------------------------|

------------------------------------------------------------|
-12-----12--14------14--16hold------------------------------|
-----13---------15------------------------------------------|
------------------------------------------------------------|
------------------------------------------------------------|
------------------------------------------------------------|
The lead guitar parts are played at random parts of the song, but in this order
Related for Endless Summer Theme tab