Guitaretab - guitar tabs
Song name
# A B C D E F G H I J K L M N O P Q R S T U V W X Y Z

Sangtrait - El Vol De Lhome Ocell tab

El Vol de l'home ocell
Sangtra´t
Els senyors de les pedres 1987 (#4)
Treta per: Nil (23-4-07) nilitus@gmail.com

Intro: x4
Guitarra neta, deixar sonar

e|-------------3--------------0----------||
B|----1-----------3-----1--------1-------||
G|-------0-----------------0-------------||
D|---------------------------------------||
A|-3--------2--------3--------------3-2--||
E|---------------------------------------||

Pont: x4
Tocar junt amb la intro
Guitarra amb distorsiˇ

e|---------------------------------------||
B|---------------------------------------||
G|---------------------------------------||
D|---------------------------------------||
A|-3-----5--------------------------3-2--||
E|----------3-----3--5--7--5--5----------||


Chorus:
mateixa guitarra que al pont
[ Tab from: http://www.guitaretab.com/s/sangtrait/46968.html ]
   C        G        Am
e|---------------------------------------||
B|---------------------------------------||
G|-5-----------------2-------------------||
D|-5--------5--------2-------------------||
A|-3--------5--------0-------------------||
E|----------3----------------------------||


Pre-chorus:

   G       D       C       E       Am   
e|-------|-------|-------|-------|-------||
B|-------|-------|-------|-------|-------||
G|-------|-7-----|-5-----|-------|-2-----||
D|-5-----|-7-----|-5-----|-2--2--|-2-----||
A|-5-----|-5-----|-3-----|-2--2--|-0-----||
E|-3-----|-------|-------|-0--0--|-------||



Ordre:

Intro x4
Pont + Intro x4
Chorus x4
Intro x8
Pre-chorus x1
Chorus x4
Intro x4
Pre-chorus x1
Chorus x8 (solo d'harm˛nica)
Chorus x2
Intro x8
Pre-chorus x1
Chorus x4
Intro x4
Fi: Acord C

totes les tablatures estan proporcionades (a excepciˇ de la ˙ltima, pre-chorus) aixi que compte.