Song name
# A B C D E F G H I J K L M N O P Q R S T U V W X Y Z

Saosin - Seven Years tab

                          Seven Years - Saosin

Note: - * I know this is not exactly how to play the song. But I promise
 you it fits perfectly. I also am aware this song is in D standard tuning,
 but it's easier to play this way. Great version for begginers - *

Tuning: Drop D 
(D A D G B E)

Key: D natural minor

****************Rhythm guitar*****************

"Taking on, seven years..."

E|-----------------------------------------------------|
B|-----------------------------------------------------| 
G|-----------------------------------------------------|  
D|-----10~----------10~----------10~----------10~------|  
A|---8----8---8---8----8---8---8----8---8---8----8---8-|
D|-0--------0---0--------0---8--------8---8--------8---| Play three times

"Getting off my chest...                    ...the story ends!"

E|----------------------------------------------------------|
B|----------------------------------------------------------| 
G|----------------------------------------------------------|  
D|-----10~----------10~----------10~------------10~---------|  
A|---8----8---8---8----8---8---8----8---8----10----10----10-|
D|-0--------0---0--------0---8--------8---10----------10----|

"I WOULD FIND A WAY WITHOUT!"  "Tell him, his eyes see too clear!"

E|------------------------------------------|
B|------------------------------------------|
G|------------------------------------------|
D|-0--10--------0--10----------888888888888-|
A|-0-----7-7-8--0-----7-7-8----888888888888-|
D|-0------------0--------------888888888888-|
                               \/\/\/\/\/\/ <- "Up\Down" strumming *(Approx. Figure out pattern)*

"I WOULD FIND A WAY WITHOUT YOU!"  "Tell him, his eyes see too clear!"

E|-----------------------------------------------------------------|
B|-----------------------------------------------------------------|
G|-----------------------------------------------------------------|
D|-0--10--------0--10------------------8-8-8-8-8-8-8-8-8-8-8--12\0-|
A|-0-----7-7-8--0-----7-7-8------------8-8-8-8-8-8-8-8-8-8-8--12\0-|
D|-0------------0----------------------8-8-8-8-8-8-8-8-8-8-8--12\0-|

"THAT MISTAKE WAS GOLD! I know that without you..." 

E|--------------------------------------------------------------|
B|--------------------------------------------------------------|
G|-----------------------------TENS-----------------------------|
D|-000000000000000-101010101010101010101010101010-777777-888888-|
A|-000000000000000-101010101010101010101010101010-777777-888888-|
D|-000000000000000-101010101010101010101010101010-777777-888888-| Play twice



"Seven years, you assured me..."

E|-----------------------------------------------------|
B|-----------------------------------------------------| 
G|-----------------------------------------------------|  
D|-----10~----------10~----------10~----------10~------|  
A|---8----8---8---8----8---8---8----8---8---8----8---8-|
D|-0--------0---0--------0---8--------8---8--------8---| Play three times

"Getting off my chest...                    ...the story ends!"

E|----------------------------------------------------------|
B|----------------------------------------------------------| 
G|----------------------------------------------------------|  
D|-----10~----------10~----------10~------------10~---------|  
A|---8----8---8---8----8---8---8----8---8----10----10----10-|
D|-0--------0---0--------0---8--------8---10----------10----|

"I WOULD FIND A WAY WITHOUT!"  "Tell him, his eyes see too clear!"

E|------------------------------------------|
B|------------------------------------------|
G|------------------------------------------|
D|-0--10--------0--10----------888888888888-|
A|-0-----7-7-8--0-----7-7-8----888888888888-|
D|-0------------0--------------888888888888-|
                               \/\/\/\/\/\/ <- "Up\Down" strumming *(Approx. Figure out pattern)*

"I WOULD FIND A WAY WITHOUT YOU!"  "Tell him, his eyes see too clear!"

E|-----------------------------------------------------------------|
B|-----------------------------------------------------------------|
G|-----------------------------------------------------------------|
D|-0--10--------0--10------------------8-8-8-8-8-8-8-8-8-8-8--12\0-|
A|-0-----7-7-8--0-----7-7-8------------8-8-8-8-8-8-8-8-8-8-8--12\0-|
D|-0------------0----------------------8-8-8-8-8-8-8-8-8-8-8--12\0-|

"THAT MISTAKE WAS GOLD! I know that without you..." 

E|--------------------------------------------------------------|
B|--------------------------------------------------------------|
G|-----------------------------TENS-----------------------------|
D|-000000000000000-101010101010101010101010101010-777777-888888-|
A|-000000000000000-101010101010101010101010101010-777777-888888-|
D|-000000000000000-101010101010101010101010101010-777777-888888-| Play twice

[Transition into Outro]

E|------------------------------------------|
B|------------------------------------------|
G|------------------------------------------|
D|-0-0-0-0----0-0-0-0----0-0-0-0----0-0-0-0-|
A|-0-0-0-0----0-0-0-0----0-0-0-0----0-0-0-0-|
D|-0-0-0-0----0-0-0-0----0-0-0-0----0-0-0-0-|
                   
"Sorry, I'm sorry, I'm not...
 Don't treat me, I'm to blame.
 Sorry, I'm sorry, I'm not...
 Don't treat me like I ever accused you."

E|----------------------------------------|
B|----------------------------------------|
G|----------------------------------------|
D|-0-0-0-0--0-0-0-0--8-8-8-8--10-10-10-10-|
A|-0-0-0-0--0-0-0-0--8-8-8-8--10-10-10-10-|
D|-0-0-0-0--0-0-0-0--8-8-8-8--10-10-10-10-| Repeat as neccesary.
Tap to rate this tab
# A B C D E F G H I J K L M N O P Q R S T U V W X Y Z