Song name
# A B C D E F G H I J K L M N O P Q R S T U V W X Y Z

Saosin - Seven Years tab

Band: Saosin
Title: Seven years
tabbed by: Diego Moncayo from Guayaquil, Ecuador
e-mail: diego_moncayo90@hotmail.com

... - Palm Mute 
h - Hammer On 
p - Pull Off 
* - Harmonics 

Drop C Tuned

*************************************Intro/Verse**************************************

Guitar 2 
D|--------10-------------10-------------10-------------10----------|                
A|------8----8----8----8----8----8----8----8----8----8----8----8---|
F|---11--------11---11--------11---11--------11---11--------11-----| X4
C|-----------------------------------------------------------------|
G|-----------------------------------------------------------------|
C|-----------------------------------------------------------------|

Guitar 1 
D|-----------------------------------------------------------------|                
A|-----3-----------3-----------3-----------3-----------------------|
F|---0---0---0---0---0---0---0---0---0---0---0---0-----------------| X3
C|-2-------2---2-------2-------------------------------------------|
G|-------------------------3-------3---3-------3-------------------|
C|-----------------------------------------------------------------|

D|---------------------------------------------------------------------|
A|-----3-----------3-----------3------------3--------------------------|
F|---0---0---0---0---0---0---0---0---0----0---0---0--------------------|
C|-2-------2---2-------2----------------0-------0----------------------|
G|-------------------------3-------3-----------------------------------|
C|---------------------------------------------------------------------|


****************************************Chorus****************************************

Guitar 2
D|---------------------------------------------------------------------|
A|---------------------------------------------------------------------|
F|-------------------------2h4-4-4-4p2----777777777777777777777777-----|
C|-2---4h5-5-5-5p4-----2---------------5--555555555555555555555555-----|
G|-2---------------7---2------------------333333333333333333333333-----|
C|-2-------------------2-----------------------------------------------|

D|---------------------------------------------------------------------|
A|---------------------------------------------------------------------|
F|-----------7--------------7--------------------7-5-4-----------------|
C|-2-4-4h5-4---5--2-4-4h5-4---5--2-4-5-4-5-7-5-7-------5---------------|
G|---------------------------------------------------------------------|
C|---------------------------------------------------------------------|

                            "Repeat Harmonics"
D|------------------------------------------------------------------|
A|-----------------------5*----7*-----------------------------------|
F|------------5* 12*-7*-----5*--------------------------------------|
C|------------------------------------------------------------------|
G|------------------------------------------------------------------|
C|------------------------------------------------------------------|

 
Guitar 1
D|---------------------------------------------------------------------|
A|----5*-----------------------5*--------------------------------------|
F|-------5*-----------------------5*----------------777777777777777777-|
C|-2--------4h5-5-5-5p4-----2--------4h5-5-5-5p4----555555555555555555-|
G|-2--------------------7---2--------------------7--333333333333333333-|
C|-2------------------------2------------------------------------------|

D|---------------------------------------------------------------------|
A|----5*-----------------------5*--------------------------------------|
F|-------5*-----------------------5*-----------------------------------|
C|-2--------4h5-5-5-5p4-----2--------4h5-5-5-5p4-----------------------|
G|-2--------------------7---2--------------------7---------------------|
C|-2------------------------2------------------------------------------|

D|---------------------------------------------------------------------|
A|---------------------------------------------------------------------|
F|-----4---4-5-4-5-7-5-4-----------------------------------------------|
C|-5-7---7---------------5---------------------------------------------|
G|---------------------------------------------------------------------|
C|---------------------------------------------------------------------|

D|---------------------------------------------------------------------|
A|---------------------------------------------------------------------|
D|-----------------7777777777777777-44444444-55555555------------------|
C|-222222222222222-7777777777777777-44444444-55555555------------------|
G|-222222222222222-5555555555555555-22222222-33333333------------------|
C|-222222222222222-----------------------------------------------------|

D|---------------------------------------------------------------------|
A|-------------------------------------------7---------------7---------|
D|-----------------7777777777777777------5-----5---5-----5-----5---5---|
C|-222222222222222-7777777777777777--3-3---3-----3---3-3---3-----3-----|
G|-222222222222222-5555555555555555------------------------------------|
C|-222222222222222-----------------------------------------------------|
                                     . .   .     .   . .   .     .
D|---------------------------------------------------------------------|
A|---------7--------------7--------------------------------------------|
F|-----5-----5---5----5-----5----5----5*-------------------------------|
C|-5-5---5-----5---5-5---5-----5---------------------------------------|
G|---------------------------------------------------------------------|
C|---------------------------------------------------------------------|


****************************************Verse2****************************************

Guitar 2 
D|--------10-------------10-------------10-------------10----------|                
A|------8----8----8----8----8----8----8----8----8----8----8----8---|
F|---11--------11---11--------11---11--------11---11--------11-----| X2
C|-----------------------------------------------------------------|
G|-----------------------------------------------------------------|
C|-----------------------------------------------------------------|

Guitar 1
D|-----------------------------------------------------------------|                
A|-----3-----------3-----------3-----------3-----------------------|
F|---0---0---0---0---0---0---0---0---0---0---0---0-----------------|
C|-2-------2---2-------2-------------------------------------------|
G|-------------------------3-------3---3-------3-------------------|
C|-----------------------------------------------------------------|

D|---------------------------------------------------------------------|
A|-----3-----------3-----------3------------3--------------------------|
F|---0---0---0---0---0---0---0---0---0----0---0---0--------------------|
C|-2-------2---2-------2----------------0-------0----------------------|
G|-------------------------3-------3-----------------------------------|
C|---------------------------------------------------------------------|


******************************************Chorus**************************************

Guitar 2
D|---------------------------------------------------------------------|
A|---------------------------------------------------------------------|
F|-------------------------2h4-4-4-4p2----777777777777777777777777-----|
C|-2---4h5-5-5-5p4-----2---------------5--555555555555555555555555-----|
G|-2---------------7---2------------------333333333333333333333333-----|
C|-2-------------------2-----------------------------------------------|

D|---------------------------------------------------------------------|
A|---------------------------------------------------------------------|
F|-----------7--------------7--------------------7-5-4-----------------|
C|-2-4-4h5-4---5--2-4-4h5-4---5--2-4-5-4-5-7-5-7-------5---------------|
G|---------------------------------------------------------------------|
C|---------------------------------------------------------------------|

                            "Repeat Harmonics"
D|------------------------------------------------------------------|
A|-----------------------5*----7*-----------------------------------|
F|------------5* 12*-7*-----5*--------------------------------------|
C|------------------------------------------------------------------|
G|------------------------------------------------------------------|
C|------------------------------------------------------------------|


Guitar 1
D|---------------------------------------------------------------------|
A|----5*-----------------------5*--------------------------------------|
F|-------5*-----------------------5*----------------777777777777777777-|
C|-2--------4h5-5-5-5p4-----2--------4h5-5-5-5p4----555555555555555555-|
G|-2--------------------7---2--------------------7--333333333333333333-|
C|-2------------------------2------------------------------------------|

D|---------------------------------------------------------------------|
A|----5*-----------------------5*--------------------------------------|
F|-------5*-----------------------5*-----------------------------------|
C|-2--------4h5-5-5-5p4-----2--------4h5-5-5-5p4-----------------------|
G|-2--------------------7---2--------------------7---------------------|
C|-2------------------------2------------------------------------------|

D|---------------------------------------------------------------------|
A|---------------------------------------------------------------------|
F|-----4---4-5-4-5-7-5-4-----------------------------------------------|
C|-5-7---7---------------5---------------------------------------------|
G|---------------------------------------------------------------------|
C|---------------------------------------------------------------------|

D|---------------------------------------------------------------------|
A|---------------------------------------------------------------------|
D|-----------------7777777777777777-44444444-55555555------------------|
C|-222222222222222-7777777777777777-44444444-55555555------------------|
G|-222222222222222-5555555555555555-22222222-33333333------------------|
C|-222222222222222-----------------------------------------------------|

D|---------------------------------------------------------------------|
A|-------------------------------------------7---------------7---------|
D|-----------------7777777777777777------5-----5---5-----5-----5---5---|
C|-222222222222222-7777777777777777--3-3---3-----3---3-3---3-----3-----|
G|-222222222222222-5555555555555555------------------------------------|
C|-222222222222222-----------------------------------------------------|
                                     . .   .     .   . .   .     .
D|---------------------------------------------------------------------|
A|---------7--------------7--------------------------------------------|
F|-----5-----5---5----5-----5----5-------------------------------------|
C|-5-5---5-----5---5-5---5-----5---------------------------------------|
G|---------------------------------------------------------------------|
C|---------------------------------------------------------------------|

******************************************Bridge**************************************

Both Guitars
D|---------------------------------------------------------------------|
A|---------------------------------------------------------------------|
F|---------------------------------------------------------------------|
C|-222222222--222222222--222222222--222222222--------------------------|
G|-222222222--222222222--222222222--222222222--------------------------|
C|-222222222--222222222--222222222--222222222--------------------------|


Guitar 2

                            "Repeat Harmonics"
D|------------------------------------------------------------------|
A|-----------------------5*----7*-----------------------------------|
F|------------5* 12*-7*-----5*--------------------------------------|
C|------------------------------------------------------------------|
G|------------------------------------------------------------------|
C|------------------------------------------------------------------|

Guitar 1
D|------------------------------------------------------------------|
A|------------------------------------------------------------------|
F|-----------------------777777777--777777777-----------------------| X5
C|-222222222--222222222--555555555--777777777-----------------------|
G|-222222222--222222222--333333333--555555555-----------------------|
C|-222222222--222222222---------------------------------------------|

Both Guitars

D|---------------------------------------------------------------------|
A|---------------------------------------------------------------------|
F|---------------------------------------------------------------------|
C|-2x------------------------------------------------------------------|
G|-2x------------------------------------------------------------------|
C|-2x------------------------------------------------------------------|

Let it ring
Tap to rate this tab
 
# A B C D E F G H I J K L M N O P Q R S T U V W X Y Z