Guitaretab - guitar tabs
Song name
# A B C D E F G H I J K L M N O P Q R S T U V W X Y Z

Saosin - They Perch On Their Stilts Pointing And Daring Me To Break Custom tab

Drop D tuning

Guitar 1's parts...

Intro
E--------------------------------------------------|
B--------------------------------------------------|
G--------------------------------------------------|
D-000000-3-3p2p0-2-2h3-000000-7-7p5/3-5-5h7--------|
A-000000---------------000000----------------------|
D-000000---------------000000----------------------|

E--------------------------------------------------|
B--------------------------------------------------|
G--------------------------------------------------|
D-888888-3-3p2p0-2-2h3-101010101010-7-7p5/3-5-5h7--|
A-888888---------------101010101010----------------|
D-888888---------------101010101010----------------|

E--------------------------------------------------|
B--------------------------------------------------|
G--------------------------------------------------|
D-0~-----000~--------------------------------------|
A-0~-----000~--------------------------------------|
D-0~-----000~--------------------------------------|
         ..

Verse...2x
E--------------------------------------------------|
B-5--5--5--5--5---3--3--3--3--3---6--6--6--6--6----|
G--5--5--5--5--5-5-5--5--5--5--5-5-5--5--5--5--5-5-|
D---0--0--0--0--0---0--0--0--0--0---0--0--0--0--0--|
A--------------------------------------------------|
D--------------------------------------------------|

Pre-Chorus...2x
E--------------------------------------------------|
B--------------------------------------------------|
G--------------------------------------------------|
D-0~-----10~-----8~-----10~------------------------|
A-0~-----10~-----8~-----10~------------------------|
D-0~-----10~-----8~-----10~------------------------|

Chorus...2x
"i see a blank notebook page"
E--------------------------------------------------|
B--------------------------------------------------|
G--------------------------------------------------|
D-000000-3-3p2p0-2-2h3-000000-7-7p5/3-5-5h7--------|
A-000000---------------000000----------------------|
D-000000---------------000000----------------------|

E--------------------------------------------------|
B--------------------------------------------------|
G--------------------------------------------------|
D-888888-3-3p2p0-2-2h3-101010101010-7-7p5/3-5-5h7--|
A-888888---------------101010101010----------------|
D-888888---------------101010101010----------------|

"i hope you dont see a thing"
E--------------------------------------------------|
B--------------------------------------------------|
G--------------------------------------------------|
D-0~-----10~-----8~-----10~------------------------|
A-0~-----10~-----8~-----10~------------------------|
D-0~-----10~-----8~-----10~------------------------|

"dance around"
E-------------------------------------------------------|
B-------------------------------------------------------|
G-------------------------------------------------------|
D-0~-----10~-----10~-----8~------8~------10~------10~---|
A-0~-----10~-----10~-----8~------8~------10~------10~---|
D-0~-----10~-----10~-----8~------8~------10~------10~---|

solo...1x
E------------------------------------------------------------|
B------------------------------------------------------------|
G------------------------------------------------------------|
D---3-3p2p0-2h3-0-3-3p2p0-2h3---3-3p2p0-2h3---3-3p2p0-2h3----|
A-----------------------------3-------------3----------------|
D-0----------------------------------------------------------|

E------------------------------------------------------------|
B------------------------------------------------------------|
G------------------------------------------------------------|
D---3-3p2p0-2h3---3-3p2p0-2h3---3-3p2p0-2h3---3-3p2p0-2h3-2--|
A-0-------------0-------------1-------------1----------------|
D------------------------------------------------------------|

E------------------------------------------------------------|
B------------------------------------------------------------|
G------------------------------------------------------------|
D---7-7p5/3-7h9-0-7-7p5/3-5h7---7-7p5/3-5h7---7-7p5/3-5h7----|
A-----------------------------3-------------3----------------|
D-0----------------------------------------------------------|

E------------------------------------------------------------|
B------------------------------------------------------------|
G------------------------------------------------------------|
D---7-7p5/3-7h9---7-7p5/3-5h7---7-7p5/3-5h7---7-7p5/3-5h7-3--|
A-0-------------0--------------1-------------1---------------|
D------------------------------------------------------------|

Outro...plays till end.
E--------------------------------------------------|
B--------------------------------------------------|
G--------------------------------------------------|
D-000000-3-3p2p0-2-2h3-000000-7-7p5/3-5-5h7--------|
A-000000---------------000000----------------------|
D-000000---------------000000----------------------|

E--------------------------------------------------|
B--------------------------------------------------|
G--------------------------------------------------|
D-888888-3-3p2p0-2-2h3-101010101010-7-7p5/3-5-5h7--|
A-888888---------------101010101010----------------|
D-888888---------------101010101010----------------|


Guitar 2's Parts

Intro
E--------------------------------------------------------|
B--------------------------------------------------------|
G-101010101010---------------101010101010----------------|
D-x-x-x-x-x-x--3-3p2p0-2-2h3-x-x-x-x-x-x--7-7p5/3-5-5h7--|
A-8-8-8-8-8-8----------------8-8-8-8-8-8-----------------|
D--------------------------------------------------------|
[ Tab from: http://www.guitaretab.com/s/saosin/75346.html ]
E--------------------------------------------------------|
B--------------------------------------------------------|
G-101010101010---------------101010101010----------------|
D-8-8-8-8-8-8--3-3p2p0-2-2h3-101010101010-7-7p5/3-5-5h7--|
A-8-8-8-8-8-8----------------101010101010----------------|
D-8-8-8-8-8-8----------------101010101010----------------|

E--------------------------------------------------|
B--------------------------------------------------|
G--------------------------------------------------|
D-0~-----000~--------------------------------------|
A-0~-----000~--------------------------------------|
D-0~-----000~--------------------------------------|
         ..

Sit out on 1st half of verse

Verse(2ndHalf)...4x
E-0000000000000000---------------------------------|
B-3336553336553666---------------------------------|
G--------------------------------------------------|
D--------------------------------------------------|
A--------------------------------------------------|
D--------------------------------------------------|

Prechorus...4x
E-0000000000000000---------------------------------|
B-3336553336553666---------------------------------|
G--------------------------------------------------|
D--------------------------------------------------|
A--------------------------------------------------|
D--------------------------------------------------|

Chorus...2x
E--------------------------------------------------------|
B--------------------------------------------------------|
G-101010101010---------------101010101010----------------|
D-x-x-x-x-x-x--3-3p2p0-2-2h3-x-x-x-x-x-x--7-7p5/3-5-5h7--|
A-8-8-8-8-8-8----------------8-8-8-8-8-8-----------------|
D--------------------------------------------------------|

E--------------------------------------------------------|
B--------------------------------------------------------|
G-101010101010---------------101010101010----------------|
D-8-8-8-8-8-8--3-3p2p0-2-2h3-101010101010-7-7p5/3-5-5h7--|
A-8-8-8-8-8-8----------------101010101010----------------|
D-8-8-8-8-8-8----------------101010101010----------------|

"i hope you dont see a thing"
E---------------------------------------------------|
B---------------------------------------------------|
G---999/1010101010999----------9999/101010----------|
D-00xxx/x-x-x-x-x-xxx1010101010xxxx/x-x-x-----------|
A-00777/8-8-8-8-8-77710101010107777/8-8-8-----------|
D-00------------------1010101010--------------------|


E------------------------------------------------------|
B------------------------------------------10---10-----|
G-999101010777777714141412121212121212127h8--7h8--7h8--|
D-xxxx-x-x-xxxxxxxx-x-x-x-x-x-x-x-x-x-x----------------|
A-7778-8-8-55555551212121010101010101010---------------|
D------------------------------------------------------|

"dance around"
E------------------------------------------------------------|
B------------------------------------------------------------|
G------------------------------------------------------------|
D-0~-----10~-----10~-----8~------8~------9999999999999999----|
A-0~-----10~-----10~-----8~------8~------xxxxxxxxxxxxxxxx----|
D-0~-----10~-----10~-----8~------8~------7777777777777777----|

Chorus...1x
E--------------------------------------------------------|
B--------------------------------------------------------|
G-101010101010---------------101010101010----------------|
D-x-x-x-x-x-x--3-3p2p0-2-2h3-x-x-x-x-x-x--7-7p5/3-5-5h7--|
A-8-8-8-8-8-8----------------8-8-8-8-8-8-----------------|
D--------------------------------------------------------|

E--------------------------------------------------------|
B--------------------------------------------------------|
G-101010101010---------------101010101010----------------|
D-8-8-8-8-8-8--3-3p2p0-2-2h3-101010101010-7-7p5/3-5-5h7--|
A-8-8-8-8-8-8----------------101010101010----------------|
D-8-8-8-8-8-8----------------101010101010----------------|

solo...1x
E------------------------------------------------------------|
B------------------------------------------------------------|
G------------------------------------------------------------|
D---3-3p2p0-2h3-0-3-3p2p0-2h3---3-3p2p0-2h3---3-3p2p0-2h3----|
A-----------------------------3-------------3----------------|
D-0----------------------------------------------------------|

E------------------------------------------------------------|
B------------------------------------------------------------|
G------------------------------------------------------------|
D---3-3p2p0-2h3---3-3p2p0-2h3---3-3p2p0-2h3---3-3p2p0-2h3-2--|
A-0-------------0-------------1-------------1----------------|
D------------------------------------------------------------|

E------------------------------------------------------------|
B------------------------------------------------------------|
G------------------------------------------------------------|
D---7-7p5/3-7h9-0-7-7p5/3-5h7---7-7p5/3-5h7---7-7p5/3-5h7----|
A-----------------------------3-------------3----------------|
D-0----------------------------------------------------------|

E------------------------------------------------------------|
B------------------------------------------------------------|
G------------------------------------------------------------|
D---7-7p5/3-7h9---7-7p5/3-5h7---7-7p5/3-5h7---7-7p5/3-5h7-3--|
A-0-------------0--------------1-------------1---------------|
D------------------------------------------------------------|

outro(play till end)
E--------------------------------------------------|
B-6--6--6--6--6---5--5--5--5--5--------------------|
G--5--5--5--5--5-5-5--5--5--5--5-5-----------------|
D---0--0--0--0--0---0--0--0--0--0------------------|
A--------------------------------------------------|
D--------------------------------------------------|
Related for They Perch On Their Stilts Pointing And Daring Me To Break Custom tab