Guitaretab - guitar tabs
Song name
# A B C D E F G H I J K L M N O P Q R S T U V W X Y Z

Saosin - Sleepers tab

-------------------------------------------------------------------------------
			     Sleepers - Saosin
-------------------------------------------------------------------------------
Tabbed by: Stephen Argiro
Email: Thndrstrck85@yahoo.com

Tuning: Tune Down Whole Step (DGCFAD)

Intro
Guitar I (X4)
e|-----------------------------------------------------------------------------|
B|-------------8------------8------8-------------------------------------------|
G|--------11-----11---11------11------11---11----------------------------------|
D|-----7h9---9------9------------9-------9-------------------------------------|
A|-----------------------------------------------------------------------------|
E|-----------------------------------------------------------------------------|

Guitar II (After Guitar I plays intro twice) (X2)
e|---------------------------------------------------------------------------|
B|---------------------------------------------------------------------------|
G|---9999999-77777777-5555555555555555---------------------------------------|
D|---9999999-77777777-5555555555555555---------------------------------------|
A|---7777777-55555555-3333333333333333---------------------------------------|
E|---------------------------------------------------------------------------|


Pre-Verse
Guitar I and II
e|--------------0-------------------------------------------------------------|
B|--------------0--letring----------------------------------------------------|
G|--------------9------------------<4>----------------------------------------|
D|---2-letring--------------------------<5>---<4>---<2>-----------------------|
A|---2------------------------------------------------------------------------|
E|---0------------------------------------------------------------------------|

Verse
Guitar I (X5)
e|----------------------------------------------------------------------------|
B|----------------------------------------------------------------------------|
G|-12\9-9-9-9-9-9-9-9-9-9-9-9/12-12-12-12\11-11-11-11-11-11-11-11-11-11-11-11-|
D|----------------------------------------------------------------------------|
A|-10\7-7-7-7-7-7-7-7-7-7-7-7/10-10-10-10\9--9--9--9--9--9--9--9--9--9--9--9--|
E|----------------------------------------------------------------------------|

Guitar II (X3) Enters after Guitar I plays riff X2
e|---------------------------------------------------------------------------|
B|--8-0-7h8-0-5h7-0-3-0-5-0-8-0-7h8------------------------------------------|
G|---------------------------------------------------------------------------|
D|---------------------------------------------------------------------------|
A|---------------------------------------------------------------------------|
E|---------------------------------------------------------------------------|


Pre-Chorus
Guitar 1 (X1)
e|---------------------------------000---------------------------------------|
B|---------------------------------555---------------------------------------|
G|---------------------0---0-------------------------0---0-------------------|
D|--22-2-22--2222-2----4---5--22-2-----2222--22-2----4---5-------------------|
A|--22-2-22--2222-2-----------22-2-----2222--22-2----------------------------|
E|--00-0-00-0000-0--0---0----00-0-----0000--00-0--0---0---------------------|
PM           ..      .   .             ....        .   .

Guitar II (X1)
e|---------------------------------------------------------------------------|
B|---------------------------------------------------------------------------|
G|---------------------------------------------------------------------------|
D|--22-2-22--2222-2-----------22-2-----2222--22-2----------------------------|
A|--22-2-22--2222-2-----------22-2-----2222--22-2----------------------------|
E|--00-0-00-0000-0--0---0----00-0-----0000--00-0-0---0---------------------|
PM           ..      .   .             ....        .   .


Guitar I (X1)
e|-------------------------------------------------------------------------------|
B|--------------8------------8---------------------------------------------------|
G|---------11--------11--------11---11-------------------------------------------|
D|-----7h9----9-----------9-------9----------------------------------------------|
A|-------------------------------------------------------------------------------|
E|-------------------------------------------------------------------------------|


Chorus
Guitar I (X4)
e|---------------------------------------------------------------------------|
B|---------------------------------------------------------------------------|
G|---9999999-77777777-5555555555555555---------------------------------------|
D|---9999999-77777777-5555555555555555---------------------------------------|
A|---7777777-55555555-3333333333333333---------------------------------------|
E|---------------------------------------------------------------------------|

Guitar II
e|---------------------------------------------------------------------------|
B|------------8------------8------8------------------------------------------|
G|-------11-----11---11------11------11---11---------------------------------|
D|---7h9----9------9------------9-------9------------------------------------|
A|-----------------------0---------------------------------------------------|
E|---------------------------------------------------------------------------|

[ Tab from: http://www.guitaretab.com/s/saosin/142707.html ]
Pre-Verse
Guitar I and II
e|--------------0-------------------------------------------------------------|
B|--------------0--letring----------------------------------------------------|
G|--------------9------------------<4>----------------------------------------|
D|---2-letring--------------------------<5>---<4>---<2>-----------------------|
A|---2------------------------------------------------------------------------|
E|---0------------------------------------------------------------------------|


Verse
Guitar I (X5)
e|----------------------------------------------------------------------------|
B|----------------------------------------------------------------------------|
G|-12\9-9-9-9-9-9-9-9-9-9-9-9/12-12-12-12\11-11-11-11-11-11-11-11-11-11-11-11-|
D|----------------------------------------------------------------------------|
A|-10\7-7-7-7-7-7-7-7-7-7-7-7/10-10-10-10\9--9--9--9--9--9--9--9--9--9--9--9--|
E|----------------------------------------------------------------------------|

Guitar II (X3) Enters after Guitar I plays riff X2
e|---------------------------------------------------------------------------|
B|--8-0-7h8-0-5h7-0-3-0-5-0-8-0-7h8------------------------------------------|
G|---------------------------------------------------------------------------|
D|---------------------------------------------------------------------------|
A|---------------------------------------------------------------------------|
E|---------------------------------------------------------------------------|


Pre-Chorus
Guitar 1 (X1)
e|---------------------------------000---------------------------------------|
B|---------------------------------555---------------------------------------|
G|---------------------0---0-------------------------0---0-------------------|
D|--22-2-22--2222-2----4---5--22-2-----2222--22-2----4---5-------------------|
A|--22-2-22--2222-2-----------22-2-----2222--22-2----------------------------|
E|--00-0-00-0000-0--0---0----00-0-----0000--00-0--0---0---------------------|
PM           ..      .   .             ....        .   .

Guitar II (X1)
e|---------------------------------------------------------------------------|
B|---------------------------------------------------------------------------|
G|---------------------------------------------------------------------------|
D|--22-2-22--2222-2-----------22-2-----2222--22-2----------------------------|
A|--22-2-22--2222-2-----------22-2-----2222--22-2----------------------------|
E|--00-0-00-0000-0--0---0----00-0-----0000--00-0-0---0---------------------|
PM           ..      .   .             ....        .   .


Guitar I (X1)
e|---------------------------------------------------------------------------|
B|------------8------------8-------------------------------------------------|
G|-------11--------11--------11---11-----------------------------------------|
D|---7h9----9-----------9-------9--------------------------------------------|
A|---------------------------------------------------------------------------|
E|---------------------------------------------------------------------------|


Chorus
Guitar I (X4)
e|---------------------------------------------------------------------------|
B|---------------------------------------------------------------------------|
G|---9999999-77777777-5555555555555555---------------------------------------|
D|---9999999-77777777-5555555555555555---------------------------------------|
A|---7777777-55555555-3333333333333333---------------------------------------|
E|---------------------------------------------------------------------------|

Guitar II
e|---------------------------------------------------------------------------|
B|------------8------------8------8------------------------------------------|
G|-------11-----11---11------11------11---11---------------------------------|
D|---7h9----9------9------------9-------9------------------------------------|
A|-----------------------0---------------------------------------------------|
E|---------------------------------------------------------------------------|

Bridge
Guitar I (X1)
e|--------------0-------------------------------------------------------------|
B|--------------0--letring----------------------------------------------------|
G|--------------9------------------<4>----------------------------------------|
D|---2-letring--------------------------<5>---<4>---<2>-----------------------|
A|---2------------------------------------------------------------------------|
E|---0------------------------------------------------------------------------|


Guitar II (After Guitar I part)
e|---------------------------------------------------------------------------|
B|---------------------------------------------------------------------------|
G|---------------------------------------------------------------------------|
D|-----------------------------------------------------------9---------------|
A|-10----9h10---7-----------------10-----9h10---7-------10-----10-9-7--------|
E|---0-0------0---0-0-000-0-0-0-0----0-0------0---0-7-8----8-----------------|


Ending
Guitar I
e|-----------------------------------------------------------------------------|
B|-----------------------------------------------------------------------------|
G|-----------------------------------------------------------------------------|
D|---2-----------2-------2-2-2-------------------------------------------------|
A|---2-----------2-------2-2-2-------------------------------------------------|
E|---0-----------0-------0-0-0-------------------------------------------------|

Guitar II
e|------------------------------------------------------------------------------|
B|------------------------------------------------------------------------------|
G|------------------------------------------------------------------------------|
D|------------------------2-2-2-------------------------------------------------|
A|-----9---10p9----10p9---2-2-2-------------------------------------------------|
E|---0---0-------0------00-0-0-------------------------------------------------|
PM   .   .       .      .
Related for Sleepers tab