Song name
# A B C D E F G H I J K L M N O P Q R S T U V W X Y Z

Sara Paxton - Can You Feel The Love Tonight tab

E--------------16/-18\---9------9---------------------------------9------9-|
B--------------------------11-9---11---------------11-10-9-10-9-9---11-9---|
G------------------------------------11---------11-------------------------|
D--9-----8------------------------------13-11-11---------------------------|
A--7--7--6--7--------------------------------------------------------------|
E-----5-----5--------------------------------------------------------------|

E-11--------------------------------------|I
B---------------------11-10-9-10-9-10-9---|N
G----11-11-8-------11---------------------|T
D------------11-11------------------------|R
A-----------------------------------------|O
E-----------------------------------------|


BY SarkamesŠ

punkrocker@aboingo.net

go to Sara Paxton to go to her official website
Tap to rate this tab
 
# A B C D E F G H I J K L M N O P Q R S T U V W X Y Z