Song name
# A B C D E F G H I J K L M N O P Q R S T U V W X Y Z

Sarah Mclachlan - Heartbreak chords

Highlighted       Show chord diagrams
                                          Artist - Sarah Mclachlan
                                         **************************
                                             Song - Heartbreak 
                                            *******************
                                         Album - Laws Of Illusion 
                                        **************************
                                           Tabbed By - Ayreon77
                                          **********************

INTRO
******
Eb Ab Eb Fm Bb

----------------------------------------------------------
VERSE 1
********
Eb
Before the night comes, before the city sleeps
                Ab
I walk a lonely mile
Eb
I know you out there, I know you're waiting
    Fm           Bb
For me to make a sign


----------------------------------------------------------
VERSE 2
********
Eb           Bb      Cm        
I know you'd like me to go and crumble
Eb     Bb        Ab
Reveal myself to you
Eb       Bb       Cm     Eb           Fm
I lost a wing and grew a shell on the wound
      Bb
Oh so soon


----------------------------------------------------------
CHORUS
*******
    C#   Ab       Eb        Bb
And heartbreak no you can't catch me
C#        Ab          Eb       Bb
Hot on my heals but I move too fast
  C#       Ab           Fm         Cm         C#     Bb
I know you think that I would make good company...at last


----------------------------------------------------------
VERSE 3
********
Eb         Bb          Cm         Bb          
You always come 'round after your good friend love
Eb           Gm   Ab     Fm
Has gone and run aground
Eb                  Cm           Bb            Fm
A heart in shambles oh well it’s just what you need
             Bb
Your purpose found


----------------------------------------------------------
VERSE 4
********
Eb           Gm           Cm       Bb
You turn the lights down, draw the curtains
Eb          Gm        Ab
You put the kettle on
Eb        Gm        Cm                Bb
Come over here, sit down tell me your troubles
    Fm               Bb
You sing the saddest song


----------------------------------------------------------
CHORUS
*******
----------------------------------------------------------
02:24
SOLO - Eb Gm Cm Bb Eb Gm Cm Ab
*****  Eb Gm Cm Bb Fm Bb
e|-----------------b----|---------------------------------------|
B|------8-11-8-11-11-11-|-------------------h-----b-11-11--brp--|
G|-8-10-----------------|-------8-10-8-10-10-12--10-------10--8-|
D|----------------------|-8-10----------------------------------|
A|----------------------|---------------------------------------|
E|----------------------|---------------------------------------|


e|--b---------------------|-------------------------------|
B|-11-11---b-11--rb-------|-----------------8-----s---s---|
G|--------10----10-8------|------------8-10---10--\17-/15-|
D|-------------------10-8-|-10-10-8-10--------------------|
A|------------------------|-------------------------------|
E|------------------------|-------------------------------|


----------------------------------------------------------
VERSE 5
********
Eb          
I'm free to wander so get up off of your knees
                    Ab   
And find some other fool
Eb             Bb       Cm              Bb        Fm
Someone who'll hold you when you've got no one to tease
            Bb
It won’t be me


----------------------------------------------------------
CHORUS
*******
----------------------------------------------------------
03:25
SOLO - Eb Gm Cm Bb Eb Gm Cm Ab
*****  Eb Gm Cm Bb Fm Bb
 
e|-----------------b----|---------------------------------------|
B|------8-11-8-11-11-11-|-------------------h-----b-11-11--brp--|
G|-8-10-----------------|-------8-10-8-10-10-12--10-------10--8-|
D|----------------------|-8-10----------------------------------|
A|----------------------|---------------------------------------|
E|----------------------|---------------------------------------|

                                                        
e|--b-------------------|----------------|
B|-11-11---b-11--rb-----|-----------8----|
G|--------10----10-8----|------8-10---10-|
D|-------------------10-|-8-10-----------|
A|----------------------|----------------|
E|----------------------|----------------|


e|--------------b--b--b-19---s---19-21--19-|
B|---s---19----19-19-19----19\21-----------|
G|-16\18----18-----------------------------|
D|-----------------------------------------|
A|-----------------------------------------|
E|-----------------------------------------|

                                brp     brp      brb
e|-------------------s---11----13--11--13--11-|-19---19-|--b-18--br------|
B|----------------8-8\13----13----------------|---------|-18----18-16----|
G|------8-10-8-10-----------------------------|---------|-------------17-|
D|-8-10---------------------------------------|---------|----------------|
A|--------------------------------------------|---------|----------------|
E|--------------------------------------------|---------|----------------|


e|-------------15----|
B|---h---16-18----18-|
G|-15-17-------------|
D|-------------------|
A|-------------------|
E|-------------------|



ENJOY..........
Tap to rate this tab
 
# A B C D E F G H I J K L M N O P Q R S T U V W X Y Z