Guitaretab - guitar tabs
Song name
# A B C D E F G H I J K L M N O P Q R S T U V W X Y Z

Sarasine - Untitled tab

here's the basic tab to get you started. full song with solo coming soon. i tabbed this 
my guitar so there may be a few mistakes. first tab so plz rate

Intro
   1       2       3       4          1       2       3       4
E--4----4--4-----x-x-x--9-9-|9--x-x--7----7--7-----x-x-x--7--7-7---|
B--5----5--5-----x-x-x--10-10|10-x-x--9----9--9-----x-x-x--9--9-9h10|
G--6----6--6-----x-x-x--11-11|11-x-x--9----9--9-----x-x-x--9--9-9---|
D--6----6--6-----x-x-x--11-11|11-x-x--9----9--9-----x-x-x--9--9-9---|
A--4----4--4-----x-x-x--9-9-|9--x-x--7----7--7-----x-x-x--7--7-7---|
E--4----4--4-----x-x-x--9-9-|9--x-x----------------x-x-x-----------|
                 \   /                              \   /
           Played as triplets

Verse [0:18]

   1      2       3       4       1      2      3       4
E--4---4--4----4---4--4---9-9-|--7---7--7----7---7--7---7-7---|
B--5---5--5----5---5--5---10-10|--9---9--9----9---9-9---9-9h10|
G--6---6--6----6---6--6---11-11|--9---9--9----9---9--9---9-9---|
D--6---6--6----6---6--6---11-11|--9---9--9----9---9--9---9-9---|
A--4---4--4----4---4--4---9-9-|--7---7--7----7---7--7---9-9---|
E--4---4--4----4---4--4---9-9-|-------------------------------|

Prechorus [0:34]
[ Tab from: http://www.guitaretab.com/s/sarasine/192186.html ]
   1     2     3     4      1     2     3     4
E------------------------|--------------------------|
B------------------------|--------------------------|
G------------------------|--------------------------|
D--6--6--6-6--6--6--6--6|--8--8--8--8--8--8--8--8--|
A--6--6--6--6--6--6--6--6|--8--8--8--8--8--8--8--8--|
E--4--4--4--4--4-4--4--4|--6--6--6--6--6--6--6--6--|

End Prechorus [0:38]

Verse
   1           2           3           4
E-------------------------------------------|
B-------------------------------------------|
G-----------------------------9---11-11-11--|
D--9-11-11-11-11---11-11---11---------------|
A-------------------------------------------|
E-------------------------------------------|

   1           2           3           4
E-------------------------------------------|
B-------------------------------------------|
G-----------------------------9-11b12b11---|
D--9-11-11-11-11---11-11---11---------------|
A-------------------------------------------|
E-------------------------------------------|

   1           2           3           4
E--------------------------------------10---|
B-------------------------------------------|
G-----------------------------9-11b12------|
D--9-11-11-11-11---11-11---11---------------|
A-------------------------------------------|
E-------------------------------------------|

Repeat 3x

   1     2     3     4      1     2     3     4
E------------------------|--4--4--4--4--4-----------|
B------------------------|--4--4--4--4--4-----------|
G------------------------|--5--5--5--5--5-----------|
D--7--7--7-7--7--7--7--7|--6--6--6--6--6-----------|
A--7--7--7--7--7--7--7--7|--6--6--6--6--6-----------|
E--5--5--5--5--5-5--5--5|--4--4--4--4--4-----------|

here's the link to sarasine website:

http://www.myspace.com/sarasine

keep jammin guys