Song name
# A B C D E F G H I J K L M N O P Q R S T U V W X Y Z

Satanic Surfers - Evil tab

------------------------------------------------------------------------------- 
EVIL - Satanic Surfers 
------------------------------------------------------------------------------- 

INTRO: 
(Instrumental) 

RIFF1: 
E |--------------------- 
B |--------------------- 
G |---3--3--3--2--0--2-- 
D |---3--3--3--2--0--2-- 
A |--------------------- 
E |--------------------- 

RIFF2: 
E |--------------------- 
B |--------------------- 
G |---5--5--5--4--2--4-- 
D |---5--5--5--4--2--4-- 
A |--------------------- 
E |--------------------- 

RIFF3: 
E |--------------------- 
B |--------------------- 
G |---7--7--7--6--4--6-- 
D |---7--7--7--6--4--6-- 
A |--------------------- 
E |--------------------- 

(The whole song contains the three riffs above) 

================================================================================
Tap to rate this tab
 
# A B C D E F G H I J K L M N O P Q R S T U V W X Y Z