Song name
# A B C D E F G H I J K L M N O P Q R S T U V W X Y Z

Satellite Party - Ring The Bells tab

-------------------------------------------------------------------------------
			     Ring the Bells - Satellite
-------------------------------------------------------------------------------
Tabbed by:Jake Richardson
Email:ravidrabbit@gmail.com

Tuning: EADGBe


First this

e|----0-----0----0----0----0----0-----0-----0--------------------------------|
B|---------------------------------------------------------------------------|
G|---------------------------------------------------------------------------|
D|---------------------------------------------------------------------------|
A|0----0-----0----0----4----4----4----4--------------------------------------|
E|---------------------------------------------------------------------------|



Then this


e|--2----2----2----2----4----4----4----4----0----0----0----0----2-----2----2----2|
B|-------------------------------------------------------------------------------|
G|-------------------------------------------------------------------------------|
D|-------------------------------------------------------------------------------|
A|5----5----5----5----7----7----7----7----4----4----4----4----5----5----5----5---|
E|-------------------------------------------------------------------------------|




Thats all I have figured out so far. This really is a simple tune so listen to it
 and figure out the times and how to put it together. Please take it from here as this 
is my first attempt at tabbing a song.
Tap to rate this tab
 
# A B C D E F G H I J K L M N O P Q R S T U V W X Y Z