Song name
# A B C D E F G H I J K L M N O P Q R S T U V W X Y Z

Satellite Stories - Kids Arent Safe In The Metro tab

Satellite stories - Kids aren't safe in the metro
Standard tuning.
Just some parts that I figured out, needs to be completed (by someone else?)

Intro, verse and prechorus

----------------|
----------------|
---9---9-98888--|
-78-778-7-------|
----------------|
----------------| This a few times

---------------|
---------------|
-13-11-9-10----|
---------------|
---------------|
---------------|


Guitar thingy in the verse

------------------|
------------------|
-16--14--13-------|
---14--14--14-----|
------------------|
------------------|

The bridge has the following notes, haven't figured it out yet
--------------------|
--------------------|
--------------------|
--1414-16-18--------|
--------------------|
--------------------|
Tap to rate this tab
 
# A B C D E F G H I J K L M N O P Q R S T U V W X Y Z