Guitaretab - guitar tabs
Song name
# A B C D E F G H I J K L M N O P Q R S T U V W X Y Z

Satriani Joe - Rubina tab

Rubina (from Joe Satriani's "Not of this Earth")


MAIN THEME (I suggest Using clean electrics with delay and echo effects)
e:---------------------------------------------------------------------------|
B:----8--8--7---7---------------------------------8--8--7---7----------------|
G:-7---------------7~~~---------7/9--9\7~~~----7---------------7~~~------9~~~|
D:-----------------------7/9\7--------------------------------------7/9------|
A:---------------------------------------------------------------------------|
E:---------------------------------------------------------------------------|

e:---------------------------------------------------------------------------|
B:----8---8--7---7----------------------------8--8-7--7----------------------|
G:-7----------------7~~~--------9--9/11\7~~~------------7~~-------9~~--------|
D:-----------------------7/9\7-------------------------------7/9-------------|
A:---------------------------------------------------------------------------|
E:---------------------------------------------------------------------------|

e:----------7---------------------7--------------------7---------------------|
B:---8-10~~---10~~-8-------8-10~~---10~~-8------8-10~~-----------------------|
G:-9---------------------9--------------------9----------9/11~\9-------------|
D:---------------------------------------------------------------------------|
A:---------------------------------------------------------------------------|
E:---------------------------------------------------------------------------|

e:------------7-------------------10-12--10~~----------10-12--10~~-----------|
B:-----8-10~~--------------10-12--10-12--10~~----10-12-10-12--10~~-----------|
G:-9-9----------9/11~\9----11-12-----------------11-12-------------12--------|
D:---------------------------------------------------------------------------|
A:---------------------------------------------------------------------------|
E:---------------------------------------------------------------------------|

e:-------10--12------------------10-12--10--12----10----------------15--15-14|
B:-10-12-10--12--8/10~\8---10-12-10-12--10--12----10--12/10-10\8----17--17-15|
G:-11-12---------9/11~\9---11-12---------------12-----12/10-11\9-------------|
D:---------------------------------------------------------------------------|
A:---------------------------------------------------------------------------|
E:---------------------------------------------------------------------------|

e:--14--12~--------10--12--12~---15-14-----------------------------2/--------|
B:--15--12~--12----10--12--12~---17-15---10/12\10---10/12\10-------3/--------|
G:-----------12------------12~-----------------------------------------------|
D:---------------------------------------------------------------------------|
A:---------------------------------------------------------------------------|
E:---------------------------------------------------------------------------|

e:-15--15-14--14--12~--------10--12--12~-----19-17--------------------------|
B:-17--17-15--15--12~--12----10--12--12~-----17-15-----10/12\10----10/12\10-|
G:---------------------12----11--12--12~-----16-14--------------------------|
D:--------------------------------------------------------------------------|
A:--------------------------------------------------------------------------|
E:--------------------------------------------------------------------------|


[ Tab from: http://www.guitaretab.com/s/satriani-joe/16827.html ]
Related for Rubina tab
Advertisement will be closed in 10 seconds