Song name
# A B C D E F G H I J K L M N O P Q R S T U V W X Y Z

Savage Garden - I Knew I Loved You tab

Help us improve GuitareTab! Take a short survey!
tabbed by klashnikov

e ---------------------------------------------------------|
b ---------------------------7-9-10---10-9-----7--5--------|
g ----6-7-9-9---9-7--------------------------6-------------|
d --------------------7-11---------------------------------|
a ---------------------------------------------------------|
E ---------------------------------------------------------|

this is an alternative if you find the first one hard:

e ---------------------------------------------------------|
b ---------------------------11-13-14---14-13--------------|
g ----6-7-9-9---9-7-----------------------------6-11--9----|
d --------------------7-11---------------------------------|
a ---------------------------------------------------------|
E ---------------------------------------------------------|

*note: you could slide your fingers a bit so it would be easier :D
Related for I Knew I Loved You tab