Song name
# A B C D E F G H I J K L M N O P Q R S T U V W X Y Z

Saves The Day - Where Are You tab

Credit goes to Pinktriangle@gmail.com and the Saves The Day Message Board.

Where Are You. Incomplete. (As taught to him by Chris Conley.)


Tuning: 1/2 step down.

Where are you..                       I...
Eb :----------------|----------------|----------------|----------------|
Bb :----------------|----------------|----------------|----------------|
Gb :----------------|----------------|----------------|----------------|
Db :----------------|----------------|----------------|----------------|
Ab :5-5-5-5-5-5-5-5-|*-5-5-5-4-4-4-4-|5-5-5-5-5-5-5-5-|*-5-5-5-4-4-4-4-|
Eb :4-4-4-4-4-3-3-3-|*-7-7-7-5-5-5-5-|4-4-4-4-4-3-3-3-|*-7-7-7-5-5-5-5-|
    Slipping..                        South...
Eb :----------------|----------------|----------------|--------------------|
Bb :----------------|----------------|----------------|--------------------|
Gb :----------------|----------------|----------------|--------------------|
Db :----------------|----------------|----------------|--------------------|
Ab :5-5-5-5-5-5-5-5-|5-5-5-5-7-7-7-7-|5-5-5-5-7-7-7-7-|9-9-9-9-10-10-10-10-|
Eb :4-4-4-4-3-3-3-3-|2-2-2-2-6-6-6-6-|7-7-7-7-7-7-7-7-|8-8-8-8--8--8--8--8-|
    (Listen for the timing in this; Ending is most likely wrong)
Eb :--------------|--------------|--------------|
Bb :9-9-7-9-9-7-7-|9-9-7-9-9-7-7-|9-9-7-9-9-7-7-|
Gb :9-9-6-6-6-6-6-|9-9-6-6-6-6-6-|9-9-6-6-6-6-6-|
Db :7-7-4-6-6-7-7-|7-7-4-6-6-7-7-|7-7-4-6-6-7-7-|
Ab :9-9-x-7-7-5-5-|9-9-x-7-7-5-5-|9-9-x-7-7-5-5-|
Eb :----5---------|----5---------|----5---------|
   Because...
Eb :----------------|----------------|----------------|----------------|
Bb :----------------|----------------|----------------|----------------|
Gb :----------------|----------------|----------------|----------------|
Db :----------------|----------------|----------------|----------------|
Ab :5-5-5-5-5-5-5-5-|*-5-5-5-4-4-4-4-|5-5-5-5-5-5-5-5-|*-5-5-5-4-4-4-4-|
Eb :4-4-4-4-4-3-3-3-|*-7-7-7-5-5-5-5-|4-4-4-4-4-3-3-3-|*-7-7-7-5-5-5-5-|

Eb :----------------|----------------|----------------|--------------------|
Bb :----------------|----------------|----------------|--------------------|
Gb :----------------|----------------|----------------|--------------------|
Db :----------------|----------------|----------------|--------------------|
Ab :5-5-5-5-5-5-5-5-|5-5-5-5-7-7-7-7-|5-5-5-5-7-7-7-7-|9-9-9-9-10-10-10-10-|
Eb :4-4-4-4-3-3-3-3-|2-2-2-2-6-6-6-6-|7-7-7-7-7-7-7-7-|8-8-8-8--8--8--8--8-|
                   It feels..
Eb :--------------|--------------|--------------|
Bb :9-9-7-9-9-7-7-|9-9-7-9-9-7-7-|9-9-7-9-9-7-7-|
Gb :9-9-6-6-6-6-6-|9-9-6-6-6-6-6-|9-9-6-6-6-6-6-|
Db :7-7-4-6-6-7-7-|7-7-4-6-6-7-7-|7-7-4-6-6-7-7-|
Ab :9-9-x-7-7-5-5-|9-9-x-7-7-5-5-|9-9-x-7-7-5-5-|
Eb :----5---------|----5---------|----5---------|

    If I...
Eb :----------|------------------|----------|-----------------|
Bb :----------|----------7-7-7-7-|----------|---------7-7-7-7-|
Gb :----------|----1^~----------6|----------|----1^~---------6|
Db :----------|--------4---------|----------|-------4---------|
Ab :4-444-444-|444---------------|4-444-444-|444--------------|
Eb :2-222-222-|222---------------|2-222-222-|222--------------|
                     You again...
Eb :----------|-----------------|------------|
Bb :----------|---------7-7-7-7-|9-9-9-9-9-9-|
Gb :----------|----1^~---------6|8-8-8-8-8-8-|
Db :----------|-------4---------|9-9-9-9-9-9-|
Ab :4-444-444-|444--------------|7-7-7-7-7-7-|
Eb :2-222-222-|222--------------|------------|


Eb :----------------|----------------|----------------|----------------|
Bb :----------------|----------------|----------------|----------------|
Gb :----------------|----------------|----------------|----------------|
Db :----------------|----------------|----------------|----------------|
Ab :5-5-5-5-5-5-5-5-|*-5-5-5-4-4-4-4-|5-5-5-5-5-5-5-5-|*-5-5-5-4-4-4-4-|
Eb :4-4-4-4-4-3-3-3-|*-7-7-7-5-5-5-5-|4-4-4-4-4-3-3-3-|*-7-7-7-5-5-5-5-|
Tap to rate this tab
# A B C D E F G H I J K L M N O P Q R S T U V W X Y Z