Song name
# A B C D E F G H I J K L M N O P Q R S T U V W X Y Z

Saves The Day - Stay tab

Band: Saves The Day
Song: Stay
Album: Under The Boards

Go buy Save The Day's new album Under The Boards!
It's worth the money I promise!


1/2 Step Down

Intro/Verse
e--3-3--2-0-2-3-2-0--------3-3---------|
B--0-3--0-----0-----1-0-1--0-3---------|
G--0-0--0-----0-----0-0-0--0-0---------|
D--0-0--0-----2-----2-2-2--0-0---------|
A--2-2--2-----2-----3-3-3--2-2---------|
E--3-3--3-----0------------3-3---------|

Pre Chorus
e----------|
B-5--5-----|
G-4--5-----|
D-5--5-----|
A-4--3-----|
E----------|

Chorus
G Em G Em

Post Chorus
G Em C D


Order:
Intro/Verse
Pre Chorus
Verse
Pre Chorus
Chorus 
Post Chorus
Bridge(same as verse)
Pre Chorus
Chorus



Lyrics

I'll go walking around in the dark of the day
right when every thing's quiet
see stars as they change
trees sway
sag to the street drinking puddles of rain
right on the corner of your old street
where we once stayed

seems so quiet
can't hear nothing
now

but once there was music that swam in the air
crazy laughing at dishes that smash in the sink
howlin' wolf on the radio sing you to sleep

right now
sun coming up through the cracks in the trees

I thought you'd save me
from myself with love
love
but alone is how I'll stay
from the womb to the grave

thought you'd save me
from myself with love
love
but alone is how I'll stay
from the womb to the grave
Tap to rate this tab
# A B C D E F G H I J K L M N O P Q R S T U V W X Y Z