Song name
# A B C D E F G H I J K L M N O P Q R S T U V W X Y Z

Saves The Day - Nightingale tab

This is a really great song from Saves The Day. This is the main structure of the
song in chords (power chords).


Intro
e|-----------------------------------------------------------|
B|-----------------------------------------------------------|
G|-----------------------------------------------------------|
D|----------4\6--------------4-2-1---------------------------|
A|-------------------2---------------------------------------|
E|-0---4-------------0---------------------------------------|

   Verse
e|-----------------------------------------------------------|
B|-----------------------------------------------------------|
G|-----------------------------------------------------------|
D|--2------6------2------6------2------6------2---6----------|
A|--2------6------2------6------2------6------2---6----------|
E|--0------4------0------4------0------4------0---4----------|


   Chorus-strumming
e|-----------------------------------------------------------|
B|-----------------------------------------------------------|
G|-------4----------------------4----------------------------|
D|--2----4----4----6--4----2----4----4----6--4---------------|
A|--2----2----4----6--4----2----2----4----6--4---------------|
E|--0---------2----4--2----0---------2----4--2---------------|

e|-----------------------------------------------------------|
B|-----------------------------------------------------------|
G|-------4----------------------4----------------------------|
D|--2----4----4----6--4----2----4----4-----------------------|
A|--2----2----4----6--4----2----2----4-----------------------|
E|--0---------2----4--2----0---------2-----------------------|

   Verse
e|-----------------------------------------------------------|
B|-----------------------------------------------------------|
G|-----------------------------------------------------------|
D|--2------6------2------6------2------6------2---6----------|
A|--2------6------2------6------2------6------2---6----------|
E|--0------4------0------4------0------4------0---4----------|

   Chorus
e|-----------------------------------------------------------|
B|-----------------------------------------------------------|
G|-------4----------------------4----------------------------|
D|--2----4----4----6--4----2----4----4----6--4---------------|
A|--2----2----4----6--4----2----2----4----6--4---------------|
E|--0---------2----4--2----0---------2----4--2---------------|

e|-----------------------------------------------------------|
B|-----------------------------------------------------------|
G|-------4----------------------4----------------------------|
D|--2----4----4----6--4----2----4----4-----------------------|
A|--2----2----4----6--4----2----2----4-----------------------|
E|--0---------2----4--2----0---------2-----------------------|


Interlude- Hit each of these 8 times
e|-----------------------------------------------------------|
B|-----------------------------------------------------------|
G|-----4-----4-----4-----4-----------------------------------|
D|--2--4--2--4--2--4--2--4-----------------------------------|
A|--2--2--2--2--2--2--2--2-----------------------------------|
E|--0-----0-----0-----0--------------------------------------|

Chorus
e|-----------------------------------------------------------|
B|-----------------------------------------------------------|
G|-------4----------------------4----------------------------|
D|--2----4----4----6--4----2----4----4----6--4---------------|
A|--2----2----4----6--4----2----2----4----6--4---------------|
E|--0---------2----4--2----0---------2----4--2---------------|

e|-----------------------------------------------------------|
B|-----------------------------------------------------------|
G|-------4----------------------4----------------------------|
D|--2----4----4----6--4----2----4----4-----------------------|
A|--2----2----4----6--4----2----2----4-----------------------|
E|--0---------2----4--2----0---------2-----------------------|

That's it.
Tap to rate this tab
# A B C D E F G H I J K L M N O P Q R S T U V W X Y Z