Saves The Day - Shoulder To The Wheel tab

Saves the Day
"Shoulder to the Wheel"
Through Being Coold (Equal Visions)

There has yet to be a version that had all the right details, specifically the 
pre-chorus. No exact strumming patterns, but the notes are correct.

Questions: mikexdude@gmail.com
More tabs: placeposition.blogspot.com

Intro (feedback)

Rhythm

*strum
|----------------------||---------------------------|
|----------------------||---------------------------|
|---------------------.||-8/9-99-8/9-99-9-----------|
|-----2-----7-----666-.||-8/9-99-8/9-99-9-*-7---666-|
|-12/-2-*---7-*---666--||-6/7-77-6/7-77-7---7-*-666-|
|-12/-0-----5-----444--||-------------------5---444-|

|----------------------|
|----------------------|
|----------------------|
|-2---7----9-9-9-------|
|-2-*-7-*--9-9-9-------|
|-0---5----7-7-7-------|

Lead

|--------------------------------------------------|
|-5---5---5---5---5-5-5-5-4---4-----------4h5-4-4--|
|-7f9-7b9-7b9-7b9-4-4-4-4---4--(4)xintro--4-4-4-4--|
|--------------------------------------------------|
|--------------------------------------------------|
|--------------------------------------------------|

Verse

|-0----0---0---0-----|
|-4/5--4/5-5/7/5-----|
|--------------------|
|----------------7-9-|
|----------------7-9-|
|----------------5-7-|

Pre-chorus

|--------------------------------------------------|
|--------------------------------------------------|
|-9------------------------------------------------|
|-9-99999999999999-4-4-4-2/1-4-4-4-4-4-2/1-4-4-4---|
|-7-77777777777777-2-2-2-----2-2-2-2-2-----2-2-2---|
|--------------------------------------------------|
pm  .............. . . .     . . . . .     . . .

|--------------------------------------------------|
|--------------------------------------------------|
|-------4-----------4------------------------------|
|-2-2-2---2-2-2-2-2---2-2-2--9-7-6-6-7p6/2---------|
|-4-4-4---4-4-4-4-4---4-4-4--0-0-0-0-0-0-0---------|
|--------------------------------------------------|
pm. . .   . . . . .   . . .

Chorus

Rhthmn

|---------------------|
|---------------------|
|-------------6-4-----|
|-2-2-4-4-7-6-6-4-----|
|-2-2-4-4-7-6-4-2-----|
|-0-0-2-2-5-4---------|

Lead

|-0-0-0-0-0-0--------------------------------------|
|-5-5-5-5-5-5--------------------------------------|
|-------------4-4-4-4-4-4-2-2-2-2-2-2-1-1-1-1-2-1--|
|--------------------------------------------------|
|--------------------------------------------------|
|--------------------------------------------------|

Verse 2

|---------------------------------------------------|
|---------------------------------------------------|
|---------------------4-----2----------4-----4------|
|-2-------------2-2-2-2-2-2-2-2----2-2-2-2-2-2-2----|
|-2-2-x14-4-x16-4-4-4-4-4-4-4-4-x2-0-0-0-0-0-0-0----|x2
|-0-0-----2-----------------------------------------|
pm  .     .     . . .   . .   .    . .   . .   .

|-----
|-----
|-----
|-7-9-
|-7-9-
|-5-7-

Lead

|-----------0---0----------------------------------|
|-----------4/5-5/7/5------------------------------|
|--------------------------------------------------|
|-1h2-trill----------------------------------------|
|--------------------------------------------------|
|--------------------------------------------------|

Pre-chorus

Chorus

End

|-----------|
|-----------|
|-6-6-6-4-4-|
|-6-6-6-4-4-|
|-4-4-4-2-2-|
|-----------|

Chorus Pt. 2 (strumthe the chords)

Rhthym            Lead (on the last time)
|---------------|----------------------------------|
|---------------|----------------------------------|
|----------6-4--|-9-999-9/11----13-13-13-13-14-13--|
|-2-4--7/6-6-4--|-x-xxx-x/x--x3-x--x--x--x--x--x---|
|-2-4--7/6-4-2--|-7-777-7/9-----11-11-11-11-12-11--|
|-0-2--5/4------|----------------------------------|

Break (other guitar plays the lower E powerchord)

|--------------------------------------------------|
|--------------------------------------------------|
|-9~----~-------~-/16------------------------------|
|-x~---9~---9~-9~-/x-------------------------------|
|-7~---7~---7~-7~-/14------------------------------|
|------7~---7~-7~----------------------------------|

Verse 2

Pre-chorus

Lead

|-0------0-0-0-0-0------0-0-0-0------0---0-0-------|
|-4/5-x4-5/4-2p0-4/5-x4-4-5-7-4/5-x4-5/4-2p0-------|
|--------------------------------------------------|
|--------------------------------------------------|
|--------------------------------------------------|
|------------~-------------------------------------|

|-0-0-0-0-0-0-0-0-0-0-0----0-----------------------|
|-4/5-5-7-7-7-9-9-9-9-9h10p9-----------------------|
|--------------------------------------------------|
|--------------------------------------------------|
|--------------------------------------------------|
|--------------------------------------------------|

Chorus

Chorus 2 w/chorus 1 lead, then lead plays rhythm

Outro

|------|
|------|
|-9/---|
|-x/---|
|-7/---|
|------|
Tap to rate this tab
 
# A B C D E F G H I J K L M N O P Q R S T U V W X Y Z