Guitaretab - guitar tabs
Song name
# A B C D E F G H I J K L M N O P Q R S T U V W X Y Z

Saw Doctors - Freedom Fighters tab

Highlighted       Show chord diagrams
Saw Doctors - Freedom Fighters

intro: (Mandolin)

G(0023) strummed fast adding (0012) every 8th beat


       C                    G
When a man walks out of his house one day
      G                   D  (mandolin fill - see below)
Looks up to the deep blue sky
C                
Thinks about his past
    G
And looks to the future
    G               D               G
And then the answer sparkles in his eye
             C                     G
Oh yes we're freedom fighters with mandolins
          G                    D (FILL)
We're not here for to blow you away
          C
We've got songs in our hearts
    G
And guitars in our hands
          G           D
And we're looking for peace
          G
Some fine day

(SAME CHORDS)
If you're goin' up north or way down south
Or west to Galway bay
Keep an open heart
With lots of love
Then you'll find people on your way
They'll be freedom fighters with mandolins
They won't be here for to blow you away
They'll have songs in their hearts
And guitars in their hands
And they're looking for some peace
Some fine day

GUITAR SOLO OVER VERSE CHORDS (BELOW)
[ Tab from: http://www.guitaretab.com/s/saw-doctors/164901.html ]
        C                       G
Well he found the answer it was short and sweet
G                    D (FILL)
Simple for anyone to see
     C                 
That if your soul is free
         G
And your heart is in the right place
         G                   D              G
Then you know you're headin' down the right street
             C                     G
Oh yes we're freedom fighters with mandolins
          G                    D (FILL)
We're not here for to blow you away
          C
We've got songs in our hearts
    G
And guitars in our hands
          G           D
And we're looking for peace
          G
Some fine day

REPEAT LAST TWO LINES X 2

OUTRO:

G  D  G D G

FILL:
   D                              C
E==2==2=====0====================(0)=|
A==0==============5=====3=====2==(3)=|
D==0=====0=====0=====0=====0=====(2)=|
G==2=====2=====2=====2=====2=====(0)=|

GUITAR SOLO:

e------------------------------------------------------------------|
B------------------------------------------------------------------|
G------------------------------------------------------------------|
D---------------2--0------------0----------------------------------|
A---0-2-3---2h3-------3-2---0h2----3--2--0-------3--2--0-----0--2--|
E-3------------------------------------------4h5----------3--------|


e--------------------------------------------------------------------|
B--------------------------------------------------------------------|
G--------------------------------------------------------------------|
D---------------2--0------------0------------------------------------|
A---0-2-3---2h3-------3-2---0h2----3--2--0-------3--2--0-------------|
E-3------------------------------------------4h5----------3---5b---3-|


e------------------------------|-----------------------------------|
B------------------------------|-----------------------------------|
G------------------------------|--------------repeat a few times---|
D------------------------------|------------------adlib------------|
A------------------------------|-----------------------------------|
E---5b---3---3--5b-5b-5b-5b-3--|--5b--3----------------------------|


Chords:

(guitar)
G=320033
C=X32010
D=XX0232

(mandolin)
G=0230
C=0230
D=2002
Related for Freedom Fighters tab
Advertisement will be closed in 10 seconds