Song name
# A B C D E F G H I J K L M N O P Q R S T U V W X Y Z

Say Hi - November Was White December Was Grey tab

-----------------------------------------------------------------------------
	      November was white, December Was Grey - Say Hi
-----------------------------------------------------------------------------

Tabbed by: Serge
Email:

Tuning: Standard

Same progression throughout:

  C#          E           B           A
e|---------------------------------------------------------------------------|
B|---------------------------------------------------------------------------|
G|6-66-6-6666-9-99-9-9999----------------------------------------------------|
D|x-xx-x-xxxx-x-xx-x-xxxx-9-99-9-9999-7-77-7-7777----------------------------|
A|4-44-4-4444-7-77-7-7777-x-xx-x-xxxx-x-xx-x-xxxx----------------------------|
E|------------------------7-77-7-7777-5-55-5-5555----------------------------|

Lyrics:

The fire, it cracks
And the flakes snow on
November was white
and December was grey

Well, someday soon
When the spring brings the sun
I'll finally sleep, I'll finally
feel better when the winter's gone
I'll feel better when the winter's gone
I'll feel better when the winter's gone

Oh these three months
I've been inside the house
My pacing has worn
All of the carpet out

Just give me a breeze
The rebirth of the life
I'll finally pine, I'll finally
Feel better when the winter's gone
I'll feel better when the winter's gone
I'll feel better when the winter's gone

I'll feel better when the winter's gone
I'll feel better when the winter's gone
Tap to rate this tab
 
# A B C D E F G H I J K L M N O P Q R S T U V W X Y Z