Song name
# A B C D E F G H I J K L M N O P Q R S T U V W X Y Z

Scale The Summit - The Great Plains tab

#----------------------------------PLEASE NOTE---------------------------------#
#This file is the author's own work and represents their interpretation of the #
#song. You may only use this file for private study, scholarship, or research. #
#------------------------------------------------------------------------------#

THE GREAT PLAINS
As recorded by Scale the Summit
(From the 2009 Album CARVING DESERT CANYONS)

Transcribed by Unregistered
	

Words and Music by Scale the Summit

Gtr I (E A D G B E) - 'Chris'
Gtr II (E A D G B E) - 'Travis'
Gtr III (B E A D G B E) - 'Chris Clean'
Gtr IV (B E A D G B E) - 'Travis Clean'

      Q=180
   3/4
    Gtrs I, II
    E  E   E   Q.     +H.        E  E   E   Q.     E  E   E   Q.
||------------------|----------|-----------------|----------------|
||o------------0----|-(0)------|------------0----|------------0---|
||---------2--(2)---|-(2)------|--------5--(5)---|--------7--(7)--|
||-----2--(2)-(2)---|-(2)------|----5--(5)-(5)---|----7--(7)-(7)--|
||o-0-(0)-(0)-(0)---|-(0)------|-0-(0)-(0)-(0)---|-0-(0)-(0)-(0)--|
||------------------|----------|-----------------|----------------|


  E  E   E   Q.     +H.        E  E   E   Q.     E  E   E   Q.
|-----------------|----------|-----------------|-------------------||
|------------0----|-(0)------|------------0----|------------0-----o||
|--------2--(2)---|-(2)------|--------5--(5)---|--------7--(7)-----||
|----2--(2)-(2)---|-(2)------|----5--(5)-(5)---|----7--(7)-(7)-----||
|-0-(0)-(0)-(0)---|-(0)------|-0-(0)-(0)-(0)---|-0-(0)-(0)-(0)----o||
|-----------------|----------|-----------------|-------------------||


    E  E   E   Q.       Q    Q    +Q
||--------------------|-----------------|
||o------------0------|-0---(0)---(0)---|
||---------2--(2)-----|------2----(2)---|
||-----2--(2)-(2)-----|-----------------|
||o-0-(0)-(0)-(0)-----|-----------------|
||--------------------|-----------------|
|
|   Gtr II
|   E  E   E   E  E E   E E  E  E  E  E
||--------------------|-----------------|
||o-------------------|-----------------|
||--9----------9------|-9-------9-------|
||-----7---7------7-7-|---7--7-----7--7-|
||o-------------------|-----------------|
||--------------------|-----------------|


   Q    Q     +Q       Q    Q     +Q
|-------------------|-------------------|
|-------------------|-------------------|
|--5---(5)----(5)---|--7---(7)----(7)---|
|-------5-----(5)---|-------7-----(7)---|
|-------------------|-------------------|
|-------------------|-------------------|
|
|  E E  E   E  E  E    E E  E   E  E  E
|-------------------|-------------------|
|-------------------|-------------------|
|-12-------12-------|-------------------|
|----7--7------7--7-|-12-7--7--12--7--7-|
|-------------------|-------------------|
|-------------------|-------------------|


  E E E E E E   E E E E E E    E E E  E E E    E E E  E E E   4x
|-------------|-------------|---------------|-----------------||
|-0-----0-----|-0-----0-----|--0------0-----|--0------0------o||
|---2-----2---|---2-----2---|----5------5---|----7------7-----||
|-----2-----2-|-----2-----2-|------5------5-|------7------7---||
|-------------|-------------|---------------|----------------o||
|-------------|-------------|---------------|-----------------||
|
| E E E E E E   E E E E E E    E E E  E E E    E E E  E E E   4x
|-------------|-------------|---------------|-----------------||
|-------------|-------------|---------------|----------------o||
|-------------|-------------|---------------|-----------------||
|-9-7-7-9-7-7-|-9-7-7-9-7-7-|-10-7-7-10-7-7-|-10-7-7-10-7-7---||
|-------------|-------------|---------------|----------------o||
|-------------|-------------|---------------|-----------------||


  Gtrs I, II
  E E E E E E   E E E E E E   E E E E E E   E E E E E E
|-------------|-------------|-------------|--------------|
|-------------|-------------|-------------|--------------|
|-7-----7-----|-7-----7-----|-7-----7-----|-7-----7------|
|-------------|-------------|-------------|--------------|
|---5-5---5-5-|---5-5---5-5-|---5-5---5-5-|---5-5---5-5--|
|-------------|-------------|-------------|--------------|


 5/4                       3/4
  E E E E E  E  E  E E  E   E  E E  E  E  +E
|-------------------------|-------------------|
|-----------10s12s10------|--------10s12-(12)-|
|-7s5s9---9----------9s11-|------9------------|
|-------7-----------------|---11--------------|
|-------------------------|-9-----------------|
|-------------------------|-------------------|


 6/4                                3/4
   E  E  E  E  E  E  E  E  E  Q.      E  E  E  E  +Q
|----------------12-14s16----------|-------------------|
|-------------14----------14-------|-------------------|
|----------13----------------16----|-------------------|
|-------14-------------------------|-14----------------|
|-11s12----------------------------|----16-------------|
|----------------------------------|-------14s10-(10)--|


     E  E  E  E  E  E    E  E  E  E  E  E
||--------------------|-------------------|
||o-------------------|-------------------|
||--------------------|-------------------|
||--11-------11-------|-11-------11-------|
||o----12-12----12-12-|----12-12----12-12-|
||--------------------|-------------------|
|
|   Gtr II
|    E  E  E  E  E  E    E  E  E  E  E  E
||--------------------|-------------------|
||o-------------------|-------------------|
||---7--------7-------|--7--------7-------|
||--------------------|-------------------|
||o-----5--5-----5--5-|-----5--5-----5--5-|
||--------------------|-------------------|


   E  E  E E  E  E    E  E  E E E  E
|------------------|------------------|
|------------------|------------------|
|------------------|------------------|
|-11-------9----11-|----12----7s9-11s=|
|----12-12---12----|-12----12---------|
|------------------|------------------|
|
|  E  E  E E  E  E    E  E  E E E  E
|------------------|------------------|
|------------------|------------------|
|--7-------7-------|--7-------7-------|
|------------------|------------------|
|-----5--5----5--5-|-----5--5---5--5--|
|------------------|------------------|


   E  E  E  E  E  E    E  E  E  E  E  E
|-------------------|-------------------|
|-------------------|-------------------|
|-------------------|-------------------|
|-14-------14-------|-14-------14-------|
|----12-12----12-12-|----12-12----12-12-|
|-------------------|-------------------|
|
|  E  E  E  E  E  E    E  E  E  E  E  E
|-------------------|-------------------|
|-------------------|-------------------|
|--2--------2-------|--2--------2-------|
|-------------------|-------------------|
|-------------------|-------------------|
|-----2--2-----2--2-|-----2--2-----2--2-|


   E  E  E  E  E  E    E  E  E  E  E  E   4x
|-------------------|---------------------||
|-------------------|--------------------o||
|-13-------13-------|-13-------13---------||
|-------------------|---------------------||
|----12-12----12-12-|----12-12----12-12--o||
|-------------------|---------------------||
|
|  E  E  E  E  E  E    E  E  E  E  E  E   4x
|-------------------|---------------------||
|-------------------|--------------------o||
|--1--------1-------|--1--------1---------||
|-------------------|---------------------||
|-------------------|--------------------o||
|-----0--0-----0--0-|-----0--0-----0--0---||


 6/4                           5/4
  E E E E  E E  E  E E  E  Q     E  E  E  Q   E  E  E  Q
|-----------------------------|---------------------------|
|---------10--------------17--|----------17-----------19--|
|-----7s9------------9s14-----|-------14-----------16-----|
|---7----------11-12----------|----16-----------18--------|
|-5----------9----------------|-14-----------16-----------|
|-----------------------------|---------------------------|
|
| E E E E  E E  E  E E  E  Q     E  E  E  Q   E  E  E  Q
|-----------------------------|---------------------------|
|-----------------------------|---------------------------|
|-------------------------14--|----------14-----------16--|
|-----5-7-12---------7s12-----|-------16-----------14-----|
|---5-----------9-10----------|----14-----------16--------|
|-3----------7----------------|-12-----------14-----------|


 4/4
   E  E  E  E  E  E  E E    E  E  E E E Q.
|-------------12-16-17---|-17s12-11-----------|
|----------14------------|----------7---------|
|-------14---------------|------------9-------|
|----12------------------|--------------7-----|
|-14---------------------|--------------------|
|------------------------|--------------------|
|
|  E  E  E  E  E  E  E E    E  E  E E E Q.
|------------------------|--------------------|
|-----------------9s10---|-10s=5--4-----------|
|-----------6s=9---------|----------4---------|
|--------7---------------|------------2-------|
|-----5------------------|--------------0-----|
|--7---------------------|--------------------|


   3/4
    Gtrs III, IV
    E  E   E   Q.     +H.        +H.
||------------------|----------|----------|
||-------------0----|-(0)------|-(0)------|
||o--------2--(2)---|-(2)------|-(2)------|
||-----2--(2)-(2)---|-(2)------|-(2)------|
||o-0-(0)-(0)-(0)---|-(0)------|-(0)------|
||------------------|----------|----------|
||------------------|----------|----------|


  +H.        E  E   E   Q.     E  E   E   Q.
|----------|-----------------|-------------------||
|-(0)------|------------0----|------------0------||
|-(2)------|--------5--(5)---|--------7--(7)----o||
|-(2)------|----5--(5)-(5)---|----7--(7)-(7)-----||
|-(0)------|-0-(0)-(0)-(0)---|-0-(0)-(0)-(0)----o||
|----------|-----------------|-------------------||
|----------|-----------------|-------------------||


   6/4
    E E E E Q  Q  Q  Q    E E E E Q  Q  Q  Q     E E  E E Q  Q   Q  Q
||----------0-----------|---------0-----------|-----------0-------------|
||--------0----0--------|-------0----0--------|---------0----0----------|
||o-----9---------9-----|-----9---------9-----|------11---------11------|
||----7--------------7--|---7--------------7--|----9----------------9---|
||o-0-------------------|-0-------------------|-12----------------------|
||----------------------|---------------------|-------------------------|
||----------------------|---------------------|-------------------------|


   E E  E E Q  Q   Q  Q    E E E E Q  Q  Q  Q    E E E E Q  Q  Q  Q
|-----------0------------|---------0-----------|---------0-------------||
|---------0----0---------|-------0----0--------|-------0----0----------||
|------11---------11-----|-----6---------6-----|-----6---------6------o||
|----9----------------9--|---7--------------7--|---7--------------7----||
|-12---------------------|-9-------------------|-4--------------------o||
|------------------------|---------------------|-----------------------||
|------------------------|---------------------|-----------------------||


  E E E E E E E E E E E E   E E E E E E E E E E E E
|-----------------0-0-----|-----------------0-0-----|
|-------------0-0-----0-0-|-------------0-0-----0-0-|
|---------9-9-------------|-9-9-----9-9-------------|
|-----7-7-----------------|-----7-7-----------------|
|-0-0---------------------|-------------------------|
|-------------------------|-------------------------|
|-------------------------|-------------------------|


   E  E E E  E  E E E E E E E
|---------------------0-0------|
|-----------------0-0-----0-0--|
|-----------11-11--------------|
|-------9-9--------------------|
|-12-12------------------------|
|------------------------------|
|------------------------------|


   E  E E E  E  E E E E E E E   E E E E E E E E E E E E
|---------------------0-0-----|-----------------0-0-----|
|-----------------0-0-----0-0-|-------------0-0-----0-0-|
|-11-11-----11-11-------------|---------6-6-------------|
|-------9-9-------------------|-----7-7-----------------|
|-----------------------------|-9-9---------------------|
|-----------------------------|-------------------------|
|-----------------------------|-------------------------|


  E E E E E E E E E E E E    E Q   E Q    E Q    Q   E
|-----------------0-0-----|--9-----7------9-----12-----|
|-------------0-0-----0-0-|-10-----9-----10-----10-----|
|---------6-6-------------|----------------------------|
|-----7-7-----------------|----------------------------|
|-9-9---------------------|----------------------------|
|-------------------------|----------------------------|
|-------------------------|----------------------------|
|
| Gtr IV
| E E E E E E E E E E E E    E E E E E E  E E E  E E E
|-----------------0-0-----|-------------------0--0-----|
|-------------0-0-----0-0-|---------------0-0------0-0-|
|---------6-6-------------|----------9-9---------------|
|-----7-7-----------------|------7-7-------------------|
|-4-4---------------------|--0-0-----------------------|
|-------------------------|----------------------------|
|-------------------------|----------------------------|


    W.
|-/12-------------------------|
|--12-------------------------|
|-----------------------------|
|-----------------------------|
|-----------------------------|
|-----------------------------|
|-----------------------------|
|
|   E  E E E E E E E E E E E
|--------------------0-0------|
|----------------0-0-----0-0--|
|---9--9-----9-9--------------|
|--------7-7------------------|
|-----------------------------|
|-----------------------------|
|-----------------------------|


  a  Q.       W                  +E
|------------------------------------|
|-7s=9-------10-----------------(10)-|
|-7s=9--------9------------------(9)-|
|------------------------------------|
|------------------------------------|
|------------------------------------|
|------------------------------------|
|
|    E   E E  E  E  E E E E E E   E
|-------------------------0-0--------|
|---------------------0-0-----0---0--|
|---------------11-11----------------|
|----------9--9----------------------|
|---12--12---------------------------|
|------------------------------------|
|------------------------------------|


                           ~~
   a  Q    E  Q     E Q    H         a  Q.     Q   E Q   E Q   E
|----------------------------------|-----------------------------|
|-------------------------10-------|-----------------------------|
|-10s11----9----------9------------|-9s11------9-----6-----9-----|
|------------11----12--------------|-9s11------9-----7-----9-----|
|----------------------------------|-----------------------------|
|----------------------------------|-----------------------------|
|----------------------------------|-----------------------------|
|
|     E  E E  E  E  E E E  E E E E      E  E E E E E E E E E E E
|--------------------------0-0-----|---------------------0-0-----|
|---------------------0-0------0-0-|-----------------0-0-----0-0-|
|----11-11------11-11--------------|-------------6-6-------------|
|----------9--9--------------------|---------7-7-----------------|
|----------------------------------|----9--9---------------------|
|----------------------------------|-----------------------------|
|----------------------------------|-----------------------------|


  a  Q.     Q   +H..               E  E E  E E  E E  E E  E Q
|--------------------------------|------------------------------|
|--------------------------------|-9h10---12---10-9-10p9--------|
|-9s11------9---(9)--------------|-9---------------------11-----|
|-9s11------9---(9)--------------|-9----------------------------|
|--------------------------------|------------------------------|
|--------------------------------|------------------------------|
|--------------------------------|------------------------------|
|
|    E  E E E E  E   E E E E E E   E  E E  E E  E E  E E  E E E
|------------------------0-0-----|---------------------0--0-----|
|--------------------0-0-----0-0-|----------------0--0------0-0-|
|-------------6--6---------------|-----------9--9---------------|
|---------7-7--------------------|------7--7--------------------|
|----4--4------------------------|-0--0-------------------------|
|--------------------------------|------------------------------|
|--------------------------------|------------------------------|


   E  E  E  E  E  E  E  E E  E Q
|----------------------------------|
|----------------------14---15-----|
|-14p13-------13-14-16-------------|
|-------14s16----------------------|
|----------------------------------|
|----------------------------------|
|----------------------------------|
|
|  E  E  E  E  E  E  E  E E  E E E
|-------------------------0--0-----|
|--------------------0--0------0-0-|
|--9--9--------9--9----------------|
|--------7--7----------------------|
|----------------------------------|
|----------------------------------|
|----------------------------------|


   ~~~
   H.               E E E  E E E
|------------------16-0-0-17-0-0-|
|-17-----------------------------|
|--------------------------------|
|--------------------------------|
|--------------------------------|
|--------------------------------|
|--------------------------------|
|
|  E   E E E  E  E  E E E  E E E
|-----------------------0--0-----|
|-------------------0-0------0-0-|
|------------11-11---------------|
|--------9-9---------------------|
|-12--12-------------------------|
|--------------------------------|
|--------------------------------|


   Q     H          a  E E  E  E E  E    E  E  E  Q    E  H.
|-19----17----------------------------|--------------------------------|
|------------------20s21---19---------|--------------------------------|
|-----------------------------21------|-18s19s18-----------------------|
|----------------------------------19-|----------19---19s16------------|
|-------------------------------------|--------------------------------|
|-------------------------------------|--------------------------------|
|-------------------------------------|--------------------------------|
|
|  E  E  E E  E  E     E E  E  E E  E    E  E  E  E E  E  E  E E E E E
|---------------------------0--0------|------------------------0-0-----|
|----------------------0-0-------0--0-|-------------------0--0-----0-0-|
|-11-11------11-11--------------------|-------------6--6---------------|
|--------9-9--------------------------|--------7--7--------------------|
|-------------------------------------|--9--9--------------------------|
|-------------------------------------|--------------------------------|
|-------------------------------------|--------------------------------|


   E  E  E  Q.      a  Q    Q   Q
|-------12-14------14s16---14-------|
|----14-----------------------------|
|-14--------------------------------|
|-----------------------------------|
|-----------------------------------|
|-----------------------------------|
|-----------------------------------|
|
|  E  E  E  E  E E     E E  E E E E
|---------------------------0-0-----|
|----------------------0-0------0-0-|
|--------------6-6------------------|
|--------7--7-----------------------|
|--4--4-----------------------------|
|-----------------------------------|
|-----------------------------------|


                                       ~~~
   E E  E E  Q    a  Q.      Q.        H.            E  E  E  E  E  E
|-----------12---12s14--------------|-----------------------------------|
|---------9-----------------12------|-14------------17------------------|
|------11---------------------------|------------------14-13-14-13------|
|----9------------------------------|------------------------------14s==|
|-12--------------------------------|-----------------------------------|
|-----------------------------------|-----------------------------------|
|-----------------------------------|-----------------------------------|
|
|  E E  E E  E E     E  E E  E  E E    E  E E E E E  E  E  E  E  E  E
|-------------------------0--0------|----------------------0--0---------|
|--------------------0--0-------0-0-|----------------0--0--------0--0---|
|------------9-9--------------------|--9--9-----9-9---------------------|
|-------7-7-------------------------|-------7-7-------------------------|
|--0-0------------------------------|-----------------------------------|
|-----------------------------------|-----------------------------------|
|-----------------------------------|-----------------------------------|


   Q.       Q.       Q.     Q.
|----------------------------------|
|----------10--------7------9------|
|----------------------------------|
|--9--------9--------7------9------|
|----------------------------------|
|----------------------------------|
|----------------------------------|
|
|  E   E E  E   E  E E  E E E  E E
|-------------------------0-0------|
|--------------------0--0------0-0-|
|--------------11-11---------------|
|--------9--9----------------------|
|-12--12---------------------------|
|----------------------------------|
|----------------------------------|


   H.              a E E E E E a E   Q    Q   Q   Q.      Q   E
|------------------------------8s9-|-7---------------------------|
|--5---------------8s9---7---------|-----10---7---9------10s==9--|
|--------------------------9-------|-----------------------------|
|--7-------------------------------|-----------------------------|
|----------------------------------|-----------------------------|
|----------------------------------|-----------------------------|
|----------------------------------|-----------------------------|
|
|  E   E E E  E  E   E E E E E   E   E E  E E E E E  E E  E E E
|------------------------0-0-------|-------------------0--0------|
|--------------------0-0-----0---0-|--------------0--0------0-0--|
|-11--11-----11-11-----------------|----------6-6----------------|
|--------9-9-----------------------|------7-7--------------------|
|----------------------------------|-9-9-------------------------|
|----------------------------------|-----------------------------|
|----------------------------------|-----------------------------|


   H.            Q    H          H.            H.
|-----------------------------|-----------------------------|
|-----------------------------|---------------17------------|
|-11------------11s==16-------|-----------------------------|
|-----------------------------|-14--------------------------|
|-----------------------------|-----------------------------|
|-----------------------------|-----------------------------|
|-----------------------------|-----------------------------|
|
|  E  E E E E E  E E  E E E E    E  E E E E E  E  E E E E E
|---------------------0-0-----|---------------------0-0-----|
|----------------0-0------0-0-|----------------0--0-----0-0-|
|-----------6-6---------------|-----------9-9---------------|
|-------7-7-------------------|-------7-7-------------------|
|--4--4-----------------------|--0--0-----------------------|
|-----------------------------|-----------------------------|
|-----------------------------|-----------------------------|


   +H.            a  Q   E  E Q
|---------------------------------|
|-(17)-----------13s14-----12-----|
|---------------------------------|
|----------------10s11------9-----|
|---------------------------------|
|---------------------------------|
|---------------------------------|
|
|   E  E E E E E     E E E  E E E
|------------------------0--0-----|
|--------------------0-0------0-0-|
|---9--9-----9-9------------------|
|--------7-7----------------------|
|---------------------------------|
|---------------------------------|
|---------------------------------|


   W.                              Q.      Q.       E E E E a  E  +E
|------------------------------|--------------------------------------|
|-10---------------------------|-/10-------9--------5---7---7s10-(10)-|
|------------------------------|--------------------------------------|
|--7---------------------------|---7-------6--------2---4---4s=7--(7)-|
|------------------------------|--------------------------------------|
|------------------------------|--------------------------------------|
|------------------------------|--------------------------------------|
|
|  E   E E E  E  E E E E E E E     E   E E E   E  E E E E E    E   E
|----------------------0-0-----|------------------------0-0-----------|
|------------------0-0-----0-0-|--------------------0-0--------0---0--|
|------------11-11-------------|--11--11------11-11-------------------|
|--------9-9-------------------|---------9-9--------------------------|
|-12--12-----------------------|--------------------------------------|
|------------------------------|--------------------------------------|
|------------------------------|--------------------------------------|


   +H..             Q    a  Q   E
|----------------------------------|
|-(10)------------------12s14------|
|----------------------------------|
|--(7)-------------------9s11------|
|----------------------------------|
|----------------------------------|
|----------------------------------|
|
|   E   E E E E E E E E     E E E
|---------------------0-----0------|
|-----------------0-0---------0-0--|
|-------------6-6------------------|
|---------7-7----------------------|
|---9---9--------------------------|
|----------------------------------|
|----------------------------------|


  E  W                +Q.        W.
|-----------------------------|---------------------------|
|---12---------------(12)-----|-10------------------------|
|-----------------------------|---------------------------|
|----9----------------(9)-----|--7------------------------|
|-----------------------------|---------------------------|
|-----------------------------|---------------------------|
|-----------------------------|---------------------------|
|
| E  E E E E E E E E   E  E E    E  E E E E E E E E E E E
|------------------0---0------|-------------------0-0-----|
|--------------0-0--------0-0-|---------------0-0-----0-0-|
|----------6-6----------------|-----------9-9-------------|
|------7-7--------------------|-------7-7-----------------|
|-4--4------------------------|--0--0---------------------|
|-----------------------------|---------------------------|
|-----------------------------|---------------------------|


  Gtrs III, IV
  E E E E E E E E E E E E    E  E E E  E  E E E E E E E
|-----------------0-0-----|---------------------0-0-----|
|-------------0-0-----0-0-|-----------------0-0-----0-0-|
|-9-9-----9-9-------------|-----------11-11-------------|
|-----7-7-----------------|-------9-9-------------------|
|-------------------------|-12-12-----------------------|
|-------------------------|-----------------------------|
|-------------------------|-----------------------------|


   E  E E E  E  E E E E E E E
|---------------------0-0------|
|-----------------0-0-----0-0--|
|-11-11-----11-11--------------|
|-------9-9--------------------|
|------------------------------|
|------------------------------|
|------------------------------|


  E E E E E E E E E E E E   E E E E E E E E E E E E   W.              W.
|-----------------0-0-----|-----------------0-0-----|-0-------------|-0-----|
|-------------0-0-----0-0-|-------------0-0-----0-0-|-0-------------|-0-----|
|---------6-6-------------|---------6-6-------------|-9-------------|-9-----|
|-----7-7-----------------|-----7-7-----------------|-7-------------|-7-----|
|-9-9---------------------|-4-4---------------------|-0-------------|-0-----|
|-------------------------|-------------------------|---------------|-------|
|-------------------------|-------------------------|---------------|-------|


   W.              W.              W.              +W.
|--0-------------|-0-------------|-0-------------|-(0)----|
|--0-------------|-0-------------|-0-------------|-(0)----|
|-11-------------|-6-------------|-6-------------|-(6)----|
|--9-------------|-7-------------|-7-------------|-(7)----|
|-12-------------|-9-------------|---------------|--------|
|----------------|---------------|-9-------------|-(9)----|
|----------------|---------------|---------------|--------|
|
| Gtr IV
|  W.              W.              W.              +W.
|--0-------------|-0-------------|-0-------------|-(0)----|
|--0-------------|-0-------------|-0-------------|-(0)----|
|-11-------------|-6-------------|-6-------------|-(6)----|
|--9-------------|-7-------------|-7-------------|-(7)----|
|--0-------------|-9-------------|-4-------------|-(4)----|
|----------------|---------------|---------------|--------|
|----------------|---------------|---------------|--------|


   7/4
    Gtrs III, IV
         T         T      T      T           T         T      T      T
    E E  E  E E E  E E E  E E E  E  E   E E  E  E E E  E E E  E E E  E  E
||------------------------------------|------------------------------------|
||------------------------------------|------------------------------------|
||o-----------------------------------|------------------------------------|
||------------6-7-14--------6-7-14s19-|-----------6-7-14--------6-7-14s19--|
||o----------------------16-----------|----------------------16------------|
||--5-7-14s16--------5-7--------------|-5-7-14s16--------5-7---------------|
||------------------------------------|------------------------------------|


 4/4
         T  T         T          T             T  T         T          T
  E E E  E  Q  E E    E E E E E  Q.     E E E  E  Q  E E    E E E E E  Q.     3x
|------------------|------------------|------------------|--------------------||
|-------17---------|------------------|-------17---------|--------------------||
|-----9----14------|-14---------14----|-----9----14------|-14---------14-----o||
|---7------------7-|-14p7-4s6-7-14----|---7------------7-|-14p7-4s6-7-14------||
|-5------------4---|------------------|-5------------4---|-------------------o||
|------------------|------------------|------------------|--------------------||
|------------------|------------------|------------------|--------------------||


           T      T           T       T
    E E E  E E E  E E   E  E  E E  E  E S S  E  4x
||--------------------|-------------------------||
||--------------------|-------------------------||
||o-----9-14---9-11---|---11-16---11-14---9-13-o||
||----7------7------7-|-9-------9-------7-------||
||o-5-----------------|------------------------o||
||--------------------|-------------------------||
||--------------------|-------------------------||


   5/4
         T    T      T    T        T    T      T    T
    E E  E E  E E E  E E  E   E E  E E  E E E  E E  E
||--------------------------|-------------------------|
||--------------------------|-------------------------|
||o-----14---14-----14---14-|-----14---14-----14---14-|
||----7----7------7----7----|---7----7------7----7----|
||o-5-----------5-----------|-5-----------5-----------|
||--------------------------|-------------------------|
||--------------------------|-------------------------|


       T    T      T    T         T     T      T    T
  E E  E E  E E E  E E  E   E  E  E  E  E E E  E E  E
|-------------------------|------------------------------||
|-------------------------|------------------------------||
|-----13---13-----13---13-|------16----16-----13---13---o||
|---9----9------9----9----|---11----11------9----9-------||
|-7-----------7-----------|-9-------------7-------------o||
|-------------------------|------------------------------||
|-------------------------|------------------------------||


   4/4
         T      T      T         T      T       T
    E E  E S S  E E E  E   E  E  E S S  E E  E  E
||-----------------------|------------------------|
||-----------------------|------------------------|
||o-----14-----14-----14-|------14-----14------14-|
||----7------7------7----|----7------7-------7----|
||o-5------5------5------|-5-------5------5-------|
||-----------------------|------------------------|
||-----------------------|------------------------|
|
|   Gtr IV
|        T      T      T      T         T    T
|   E E  E E    E E E  E   E  E  E E    E E  E  E
||-----------------------|------------------------|
||-----------------------|------------------------|
||o-----14-----14-----14-|---14--------14---14----|
||----7----7--------7----|-7-------7------7-------|
||o-5-------------5------|-------5--------------5-|
||-----------------------|------------------------|
||-----------------------|------------------------|


        T       T       T          T        T        T
  E  E  E  S S  E E  E  E    E  E  E  S  S  E  E  E  E
|-------------------------|-----------------------------||
|-------------------------|-----------------------------||
|------13------13------13-|-------16-------16-------16-o||
|----9-------9-------9----|----11-------11-------11-----||
|-7--------7------7-------|--9--------9--------9-------o||
|-------------------------|-----------------------------||
|-------------------------|-----------------------------||
|
|    T     T         T       T        T        T
| E  E  E  E    E E  E  E    E  E  E  E     E  E  E  E
|-------------------------|-----------------------------||
|-------------------------|-----------------------------||
|---14----14--------13----|-13-------13-------13-------o||
|-7-----7---------9-----9-|--------9--------9-------11--||
|---------------7---------|-----7-----------------9----o||
|-------------------------|-----------------------------||
|-------------------------|-----------------------------||


   5/4
    Gtrs III, IV
         T    T      T    T        T    T      T    T
    E E  E E  E E E  E E  E   E E  E E  E E E  E E  E
||--------------------------|-------------------------|
||--------------------------|-------------------------|
||o-----14---14-----14---14-|-----14---14-----14---14-|
||----7----7------7----7----|---7----7------7----7----|
||o-5-----------5-----------|-5-----------5-----------|
||--------------------------|-------------------------|
||--------------------------|-------------------------|


       T    T      T    T         T     T      T    T
  E E  E E  E E E  E E  E   E  E  E  E  E E E  E E  E
|-------------------------|------------------------------||
|-------------------------|------------------------------||
|-----13---13-----13---13-|------16----16-----13---13---o||
|---9----9------9----9----|---11----11------9----9-------||
|-7-----------7-----------|-9-------------7-------------o||
|-------------------------|------------------------------||
|-------------------------|------------------------------||


 4/4
             T    T                            T
  E  E   E   E    H        +W           E E E  E  H       W
|-----------------------|-------------|-------10--------|------|
|-----------17--(17)----|-(17)--------|-------10--------|------|
|--------9--(9)--14-----|-(14)--------|-----------------|------|
|----7--(7)-(7)--(7)----|--(7)--------|-----9----(9)s===|=7----|
|-5-(5)-(5)-(5)--(5)----|--(5)--------|---7------(7)s===|=5----|
|-----------------------|-------------|-5--------(5)s===|=3----|
|-----------------------|-------------|-----------------|------|


   T      T
   H      H         H       H         W
|-10----(10)----|-(10)----(10)----|-(10)--------|
|--------10-----|-(10)----(10)----|-(10)--------|
|---------------|-----------------|-------------|
|---------------|---7------(7)----|--(7)--------|
|---------------|-----------5-----|--(5)--------|
|---------------|-----------------|---3---------|
|---------------|-----------------|-------------|


                  T
   +W             W            +W
|-(10)--------|-(10)--------|-(10)----*|
|-(10)--------|-(10)--------|-(10)----*|
|-------------|-------------|---------*|
|--(7)--------|--(7)--------|--(7)----*|
|--(5)--------|--(5)--------|--(5)----*|
|--(3)--------|--(3)--------|--(3)----*|
|-------------|---3---------|--(3)----*|



Duration Legend
---------------
W - whole; H - half; Q - quarter; E - 8th; S - 16th; T - 32nd; X - 64th; a - acciaccatura
+ - note tied to previous; . - note dotted; .. - note double dotted
Uncapitalized letters represent notes that are staccato (1/2 duration)
Irregular groupings are notated above the duration line
Duration letters will always appear directly above the note/fret number it represents the
duration for.  Duration letters with no fret number below them represent rests.  Multi-
bar rests are notated in the form Wxn, where n is the number of bars to rest for.  Low
melody durations appear below the staff

Tablature Legend
----------------
 h   - hammer-on
 p   - pull-off
 b   - bend
 pb  - pre-bend
 r   - bend release (if no number after the r, then release immediately)
 /\  - slide into or out of (from/to "nowhere")
 s   - legato slide
 S   - shift slide
 - natural harmonic
[n]  - artificial harmonic
n(n) - tapped harmonic
 ~   - vibrato
 tr  - trill
 T   - tap
 TP  - trem. picking
 PM  - palm muting
\n/  - tremolo bar dip; n = amount to dip
 \n  - tremolo bar down
 n/  - tremolo bar up
/n\  - tremolo bar inverted dip
 =   - hold bend; also acts as connecting device for hammers/pulls
 <> - volume swell (louder/softer)
 x   - on rhythm slash represents muted slash
 o   - on rhythm slash represents single note slash

Misc Legend
-----------
 |  - bar
||  - double bar
||o - repeat start
o|| - repeat end
*|  - double bar (ending)
 :  - bar (freetime)
 $  - Segno
 &  - Coda
Tempo markers -  = BPM(8/16=s8/s16), where s8 = swing 8ths, s16 = swing 16ths

Tap to rate this tab
# A B C D E F G H I J K L M N O P Q R S T U V W X Y Z