Song name
# A B C D E F G H I J K L M N O P Q R S T U V W X Y Z

Scandal - Haruka tab

I've always loved this song, it took me a while to figure out tabs though, but here they 
are. If you see any corrections email me: kagomeninjademon@yahoo.com

Intro

e|-----------------------------------------------------------|
B|-----------------------------------------------------------|
G|-----------------7~------5~--3~------------------7~--------|
D|-3~--5~--2~--7~--7~--5~--5~--5~--3~--5~--7~--2~--7~-5~-7~--|
A|-3~--5~--2~--7~--5~--5~--3~--3~--3~--5~--7~--2~--5~-5~-7~--|
E|-1~--3~--0~--5~------3~----------1~--3~--5~--0~-----3~-5~--|

e|---------------------------------------------------------------------------------|
B|---------------------------------------------------------------------------------|
G|-----------------------------------------------------------------------55555555--|
D|-33333333--55555555--22222222--77777777--33333333--55555555--77777777--33333333--|
A|-33333333--55555555--22222222--77777777--33333333--33333333--77777777--33333333--|
E|-11111111--33333333--00000000--55555555--11111111--33333333--55555555------------|

Verse I

e|------------------------------------------------------------------|
B|------------------------------------------------------------------|
G|---------------------------------77-7-77---------55-5-555-555-55--|
D|-33-3-33-55-5-55-22-2-22-77-7-77-77-7-77-55-5-55-55-5-555-555-55--|
A|-33-3-33-55-5-55-22-2-22-77-7-77-55-5-55-55-5-55-33-3-333-333-33--|
E|-11-1-11-33-3-33-00-0-00-55-5-55---------33-3-33------------------|

e|-------------------------------------------------------------|
B|-------------------------------------------------------------|
G|---------------------------------77-7-77-----------------5~--|
D|-33-3-33-55-5-55-22-2-22-77-7-77-77-7-77-22-2-22-3~--5~--5~--|
A|-33-3-33-55-5-55-22-2-22-77-7-77-55-5-55-22-2-22-3~--5~--3~--|
E|-11-1-11-33-3-33-00-0-00-55-5-55---------00-0-00-1~--3~------|

Pre-Chorus

e|---------------------------------------------------------------------------------|
B|---------------------------------------------------------------------------------|
G|----------5-5-5-5--------------------------------------77777777------------------|
D|-6-6-6-6--5-5-5-5--7-7-7-7--3-3-3-3--2-2-2-2--7-7-7-7--77777777--5555555-5-55-5--|
A|-6-6-6-6--3-3-3-3--7-7-7-7--3-3-3-3--2-2-2-2--7-7-7-7--55555555--5555555-5-55-5--|
E|-4-4-4-4-----------5-5-5-5--1-1-1-1--0-0-0-0--5-5-5-5------------3333333-3-33-3--|

Chorus

e|-----------------------------------------|
B|-----------------------------------------|
G|---------------------7777------555-3-33--|
D|-333-55555-222-77777-5555-5555-555-5-55--|
A|-333-55555-222-77777-5555-5555-333-3-33--|
E|-111-33333-000-55555------3333-----------|

e|-----------------------------------------|
B|-----------------------------------------|
G|---------------------7777----------------|
D|-333-55555-777-22222-5555-5555-77777777--|
A|-333-55555-777-22222-5555-5555-77777777--|
E|-111-33333-555-00000------3333-55555555--|

repeat first block of chorus, then:

e|-----------------------------------------|
B|-----------------------------------------|
G|---------------44444-7777----------------|
D|-333-66666-777-44444-7777-5555-77777777--|
A|-333-66666-777-22222-5555-5555-77777777--|
E|-111-44444-555------------3333-55555555--|

Post-Chorus is same as 2nd block of Intro

Verse II

e|-----------------------------------------|
B|-----------------------------------------|
G|-----------------------777------5--5--3--|
D|-333--555-5--222--777--555--555-5--5--5--|
A|-333--555-5--000--777--555--555-3--3--3--|
E|-111--333-3--000--555-------333----------|

e|-------------------------------------------------------------------------------|
B|-------------------------------------------------------------------------------|
G|--------------------------------------7777-777---------------------------------|
D|-3333-333--5555-555-2222-222-7777-777-7777-777-2222-222--3~--5~--7~--77--5-55--|
A|-3333-333--5555-555-2222-222-7777-777-5555-555-2222-222--3~--5~--7~--77--5-55--|
E|-1111-111--3333-333-0000-000-5555-555----------0000-000--1~--3~--5~--55--3-33--|

Chorus is same except don't play the last note.

Solo (I don't know the lead part so I will just tab the rhythm part)

e|----------------------------------------------------------------|
B|----------------------------------------------------------------|
G|-4444444444444444-------------------------------------------5~--|
D|-4444444444444444-7777777777777777-6666666666666666-555555--5~--|
A|-2222222222222222-7777777777777777-6666666666666666-555555--3~--|
E|------------------5555555555555555-4444444444444444-333333------|

Pre-Chorus II

e|---------------------------------------------------|
B|---------------------------------------------------|
G|-------------------------77777777------------------|
D|-6~--5~--7~--3~--2~--7~--77777777-55555555-5-55-5--|
A|-6~--5~--7~--3~--2~--7~--55555555-55555555-5-55-5--|
E|-4~--3~--5~--1~--0~--5~-----------33333333-3-33-3--|

chorus is same, play last note of chorus this time

you pretty much play the rest of chorus till the song fades out, and you end on:

e|----|
B|----|
G|----|
D|-3--|
A|-3--|
E|-1--|

----
This song was a bit of a challenge, you have to listen very carefully. If you see any 
corrections that need to be made, please contact me and I will correct them. Thanks and 
keep rockin!
Tap to rate this tab
# A B C D E F G H I J K L M N O P Q R S T U V W X Y Z