Song name
# A B C D E F G H I J K L M N O P Q R S T U V W X Y Z

Scars On Broadway - Hungry Ghost tab

song;Hungry Ghost
band;Scars On Broadway
year;2008
by,rolax44
riff

E||-----------------------|------------------------|-------------------|
B||---7-----8-------10----|8---8-7-----10----10----|-8---8-7----7------|
G||-----7-----7---7----7--|--7-------7---7------7--|---7-----7---------|
D||-------0-----0--------0|--------0-------0------0|-------------------|
A||-----------------------|------------------------|-------------------|
E||-----------------------|------------------------|-------------------|

  |-----------------|-----------------|
B||---11-----10-----|-8---8-7----7----|
G||--7---7------7---|---7-----7-------|
D||-0-------0------0|-----------------|
A||-----------------|-----------------|
E||-----------------|-----------------|




Tap to rate this tab
 
# A B C D E F G H I J K L M N O P Q R S T U V W X Y Z