Song name
# A B C D E F G H I J K L M N O P Q R S T U V W X Y Z

Scars On Broadway - They Say tab

|Scars On Broadway - They Say|




:Tuning - Drop C#
                                                                


Intro 2x
|-----------------------------------------------------------------|
|-----------------------------------------------------------------|
|-----------------------------------------------------------------|
|-----------------------------------------------------------------|
|-----------------------------------------------------------------|
|--0---0--0-0-0-0--5---5--5-5-5-5--3---3--3-3-3-3--2---2--2-2-2-2-|



verse 1  4x                                          
|-----------------------------------------------------------------|
|-----------------------------------------------------------------|
|-----------------------------------------------------------------|
|--0---0--0-0-0-0--5---5--5-5-5-5--3---3--3-3-3-3--2---2--2-2-2-2-|
|--0---0--0-0-0-0--5---5--5-5-5-5--3---3--3-3-3-3--2---2--2-2-2-2-|
|--0---0--0-0-0-0--5---5--5-5-5-5--3---3--3-3-3-3--2---2--2-2-2-2-|



bridge 2x
|-----------------------------------------------------------------|
|-----------------------------------------------------------------|
|----------------------------------2---2--2-2-2-2--2---2--2-2-2-2-|
|--3---3--3-3-3-3--3---3--3-3-3-3--2---2--2-2-2-2--2---2--2-2-2-2-|
|--3---3--3-3-3-3--3---3--3-3-3-3--0---0--0-0-0-0--0---0--0-0-0-0-|
|--3---3--3-3-3-3--3---3--3-3-3-3---------------------------------|



Chorus 2x

darons guitar:
|-----------------------------------------------------------------|
|-----------------------------------------------------------------|
|-----------------------------------------------------------------|
|-----------------------------------------------------------------|
|-----------------------------------------------------------------|
|--0---0--0-0-0-0--5---5--5-5-5-5--3---3--3-3-3-3--2---2--2-2-2-2-|

Frankys guitar:   (bend every note)              2x
|-------------------------------------------------|
|-------------------------------------------------|
|-11-11-11-11-11-11-11-11-11-11-11-11-11-11-11-11-|
|-------------------------------------------------|
|-------------------------------------------------|
|-------------------------------------------------|



verse 2 1x                                                       2x
|-----------------------------------------------------------------|
|-----------------------------------------------------------------|
|-----------------------------------------------------------------|
|-----------------------------------------------------------------|
|-----------------------------------------------------------------|
|--0---0--0-0-0-0--5---5--5-5-5-5--3---3--3-3-3-3--2---2--2-2-2-2-|
                                                                 2x
|-----------------------------------------------------------------|
|-----------------------------------------------------------------|
|-----------------------------------------------------------------|
|--0---0--0-0-0-0--5---5--5-5-5-5--3---3--3-3-3-3--2---2--2-2-2-2-|
|--0---0--0-0-0-0--5---5--5-5-5-5--3---3--3-3-3-3--2---2--2-2-2-2-|
|--0---0--0-0-0-0--5---5--5-5-5-5--3---3--3-3-3-3--2---2--2-2-2-2-|



bridge 2x
|-----------------------------------------------------------------|
|-----------------------------------------------------------------|
|----------------------------------2---2--2-2-2-2--2---2--2-2-2-2-|
|--3---3--3-3-3-3--3---3--3-3-3-3--2---2--2-2-2-2--2---2--2-2-2-2-|
|--3---3--3-3-3-3--3---3--3-3-3-3--0---0--0-0-0-0--0---0--0-0-0-0-|
|--3---3--3-3-3-3--3---3--3-3-3-3---------------------------------|



Chorus 2x

darons guitar:
|-----------------------------------------------------------------|
|-----------------------------------------------------------------|
|-----------------------------------------------------------------|
|-----------------------------------------------------------------|
|-----------------------------------------------------------------|
|--0---0--0-0-0-0--5---5--5-5-5-5--3---3--3-3-3-3--2---2--2-2-2-2-|

Frankys guitar:   (bend every note)              2x
|-------------------------------------------------|
|-------------------------------------------------|
|-11-11-11-11-11-11-11-11-11-11-11-11-11-11-11-11-|
|-------------------------------------------------|
|-------------------------------------------------|
|-------------------------------------------------|



bridge 2x
|-----------------------------------------------------------------|
|-----------------------------------------------------------------|
|----------------------------------2---2--2-2-2-2--2---2--2-2-2-2-|
|--3---3--3-3-3-3--3---3--3-3-3-3--2---2--2-2-2-2--2---2--2-2-2-2-|
|--3---3--3-3-3-3--3---3--3-3-3-3--0---0--0-0-0-0--0---0--0-0-0-0-|
|--3---3--3-3-3-3--3---3--3-3-3-3---------------------------------|



Chorus 2x

darons guitar:                                                   
|-----------------------------------------------------------------|
|-----------------------------------------------------------------|
|-----------------------------------------------------------------|
|-----------------------------------------------------------------|
|-----------------------------------------------------------------|
|--0---0--0-0-0-0--5---5--5-5-5-5--3---3--3-3-3-3--2---2--2-2-2-2-|

Frankys guitar:   (bend every note)              2x
|-------------------------------------------------|
|-------------------------------------------------|
|-11-11-11-11-11-11-11-11-11-11-11-11-11-11-11-11-|
|-------------------------------------------------|
|-------------------------------------------------|
|-------------------------------------------------|


fade out:

darons guitar:                                                   
|-----------------------------------------------------------------|
|-----------------------------------------------------------------|
|-----------------------------------------------------------------|
|-----------------------------------------------------------------|
|-----------------------------------------------------------------|
|--0---0--0-0-0-0--5---5--5-5-5-5--3---3--3-3-3-3--2---2--2-2-2-2-|

Frankys guitar:   (bend every note)              2x
|-------------------------------------------------|
|-------------------------------------------------|
|-13-13-13-13-13-13-13-13-13-13-13-13-13-13-13-13-|
|-------------------------------------------------|
|-------------------------------------------------|
|-------------------------------------------------|

The End

Please rate my tab
Tap to rate this tab
# A B C D E F G H I J K L M N O P Q R S T U V W X Y Z