Guitaretab - guitar tabs
Song name
# A B C D E F G H I J K L M N O P Q R S T U V W X Y Z

Scary Kids Scaring Kids - The Only Medicine tab

-------------------------------------------------------------------------------
		  Scary Kids Scaring Kids - The Only Medicine
-------------------------------------------------------------------------------
Tabbed by: Landrun
Email: theoatenatoris@hotmail.com

Tuning: Drop Db (eb Bb Gb Db Ab Db)

eb|---------------------------------------------------10-11-13--15---15----|
Bb|---15--15-15-18------------------------------11-13-----------18b--18b---|
Gb|---17b-17b------17-15-17-17b-15--------12-14----------------------------|
Db|--------------------------------17~-------------------------------------|
Ab|------------------------------------------------------------------------|
Db|------------------------------------------------------------------------|

eb|--15-18p15-17p15-18p15-17p15-18p15-17p15-18p15-17p15---15--15--15-------|
Bb|-------------------------------------------------------18b-18b-18b------|
Gb|------------------------------------------------------------------------|
Db|------------------------------------------------------------------------|
Ab|------------------------------------------------------------------------|
Db|------------------------------------------------------------------------|
[ Tab from: http://www.guitaretab.com/s/scary-kids-scaring-kids/67694.html ]
eb|-------------------------------------------------------15---------------|
Bb|--15----18----------------------------------------18---18b--------------|
Gb|-----17b---17-15~---15--14-15-17--15-17-19--17-19-----------------------|
Db|------------------------------------------------------------------------|
Ab|------------------------------------------------------------------------|
Db|------------------------------------------------------------------------|

eb|--15-18p15-17p15-18p15-17p15-18p15-17p15-18p15-18b----------------------|
Bb|------------------------------------------------------------------------|
Gb|------------------------------------------------------------------------|
Db|------------------------------------------------------------------------|
Ab|------------------------------------------------------------------------|
Db|------------------------------------------------------------------------|

eb|--15-18p15-17p15-18p15-17p15-18p15-17p15-18p15-17p15--------------------|
Bb|------------------------------------------------------------------------|
Gb|------------------------------------------------------------------------|
Db|------------------------------------------------------------------------|
Ab|------------------------------------------------------------------------|
Db|------------------------------------------------------------------------|

eb|--20p17-19p17-20p17-19p17-20p17-19p17-20p17-19p17---21b--21b--21b-18----|
Bb|---------------------------------------------------------------------20-|
Gb|------------------------------------------------------------------------|
Db|------------------------------------------------------------------------|
Ab|------------------------------------------------------------------------|
Db|------------------------------------------------------------------------|


| /  slide up
| \  slide down
| h  hammer-on
| p  pull-off
| ~  vibrato
| +  harmonic
| x  Mute note
===============================================================================
Related for The Only Medicine tab