Song name
# A B C D E F G H I J K L M N O P Q R S T U V W X Y Z

Scissor Sisters - I Dont Feel Like Dancing tab

-------------------------------------------------------------------------------
	      I Don't Feel Like Dancing Solos - Scissor Sisters
-------------------------------------------------------------------------------
Tabbed by:Godbe
Email: - 

Tuning:EBGDAe


First Solo after the first chorus:

1:20

e|---------------------------------------------------------------------------|
B|---------------------------------------------------------------------------|
G|-----10-9-7-9---10-9-7-9-------10-9-7/12----10-9-7-9------10-9-7---5--6--7-|
D|-8-----------------------7-8--------------------------7-8------------------|
A|---------------------------------------------------------------------------|
E|---------------------------------------------------------------------------|


Second Solo:

2:49

e|-------------------------------------/12--10-9--12--14--15---17-------------|
B|-----12--------------------------12-----------------------------------------|
G|-/14-----11--9--7---12--11-9-7----------------------------------------------|
D|----------------------------------------------------------------------------|
A|----------------------------------------------------------------------------|
E|----------------------------------------------------------------------------|

There's the basic notes for both solos. I've spaced the notes out slightly so
the timing is slightly more obvious, but it's an easy solo so you should be 
able to figure the timing out.

| /  slide up
| \  slide down
| h  hammer-on
| p  pull-off
| ~  vibrato
| +  harmonic
| x  Mute note
===============================================================================
Tap to rate this tab
# A B C D E F G H I J K L M N O P Q R S T U V W X Y Z