Song name
# A B C D E F G H I J K L M N O P Q R S T U V W X Y Z

Scooter - First Time tab

Scooter - The first time

Tabbed by: Johan Bjornell
Mail: na01jbl@student.hig.se


  Q=180
 4/4
  Gtr I
|----------12-11---|---------------------------|
|-10-10-10------12-|-(12)-12-(12)-12-14-16-14--|
|------------------|---------------------------|
|------------------|---------------------------|
|------------------|---------------------------|
|------------------|---------------------------|


|---------|--------------11--------|
|---------|-----------13----12-12--|
|---------|--13-13-13--------------|
|---------|------------------------|
|---------|------------------------|
|---------|------------------------|


|-----------------------------*|
|-(12)-12-(12)-12-14-16-14----*|
|-----------------------------*|
|-----------------------------*|
|-----------------------------*|
|-----------------------------*|


Enjoy..
Tap to rate this tab
# A B C D E F G H I J K L M N O P Q R S T U V W X Y Z