Song name
# A B C D E F G H I J K L M N O P Q R S T U V W X Y Z

Scorpions - Lorelei chords

Highlighted       Show chord diagrams
intro :
(G#m *2 / c#m / f# ) *2

G#m
There was a time when we sailed on
C#m
together
D#7
Once had a dream that we shared on the
G#m
way
E
There was a place where we
B
used to seek shelter
C#m
I never knew the
A
pain of the price I would
D#
pay
............

G#m E
Lorelei My ship has
B
passed you by And though you
C#m
promised me to show the way
D#
You led me astray
G#m
You were my lorelei....

A#m F#
Lorelei My ship has
C#
passed you by And though you
D#m
promised me to show the way
F
You led me astray
A#m F#
You were my lorelei what kind of fool ........

solo :
A#m G# F# C# G#
e-------------------------------------------------------------|
b-------------------------------------------------------------|
g--13b15--13---10-11-13-----10-11-13-------10-----------------|
d-------------------------- -------11-----------11-13----13---|
a-------------------------------------------------------------|
e-------------------------------------------------------------|
A#m G# F# C# G#
e----------------------------------------------------------------------------|
d----15-14-------------------------------------------------------------------|
g----------15-13-15-13----10-11-13----11-10----11-10-------------------------|
d---------------------------------------------11-------11-------11-13--------|
a----------------------------------------------------------------------------|
e----------------------------------------------------------------------------|
Tap to rate this tab
# A B C D E F G H I J K L M N O P Q R S T U V W X Y Z