Song name
# A B C D E F G H I J K L M N O P Q R S T U V W X Y Z

Scorpions - Wind Of Change tab

WIND OF CHANGE - THE SCORPIONS    (guitar solo) 
------------------------------ 
performed by Mathias Jabs
tabbed by Albatros(otarie68@katamail.com)                    



e|-----------------------------------------------------------------|
b|------12--12b(13)r12~------12--12b(13)r12b(13)r12---15b(17)------|
g|---14-------------------14---------------------------------------|
d|-----------------------------------------------------------------|
a|-----------------------------------------------------------------|
E|-----------------------------------------------------------------|

e|-----------------------------------------------------------------|
b|---15b(17)-----12--13--12h13p12----------------------------------|
g|------------14------------------12--14--12b(14)--12----12--------|
d|----------------------------------------------------14-----------|
a|-----------------------------------------------------------------|
E|-----------------------------------------------------------------|

                                                              
e|-----------------------------------------------------------------|
b|-----------------------------------------------------------------|
g|--12b(14)--12--------12------------------------------------------|
d|--------------14--15-----15p14p12--14--14--12\10/12---14---------|
a|-----------------------------------------------------------------|
E|-----------------------------------------------------------------|

e|--------------------------12---------15b(17)----13--12h13p12~----|
b|---12b(13)r12b(13)r12b(13)--(13)r12~-----------------------------|
g|-----------------------------------------------------------------|
d|-----------------------------------------------------------------|
a|-----------------------------------------------------------------|
E|-----------------------------------------------------------------|

e|-----------------------------------------------------------------|
b|-----------------------------------------------------------------|
g|-------17--16~--16--17--19--19b(21)------------------------------|
d|---/19-----------------------------------------------------------|
a|-------------------------------------17--20--19--17--------------|
E|-----------------------------------------------------------------|


e|---14b(16)r14b-12--14b-14b(16)------------------|
b|------------------------------------------------|
g|------------------------------------------------|
d|------------------------------------------------|
a|------------------------------------------------|
E|------------------------------------------------|


|-----------------------------------------------------| 
|For any comments, suggestions, corrections, feedback |
|otarie68@katamail.com                                |
|-----------------------------------------------------|
Tap to rate this tab
# A B C D E F G H I J K L M N O P Q R S T U V W X Y Z