Song name
# A B C D E F G H I J K L M N O P Q R S T U V W X Y Z

Scott Matthew - In The End tab

In The End
By Scott Matthew


Intro

E-----------------------------------------------------------------|
B----------8------10------8---------------------10----------------|
G---------------------------------------11--------------11--------|
D------10-----10------10-----10-----10------10------10------10----|
A-----------------------------------------------------------------|
E---8----------------------------8--------------------------------|


E-----------------------------------------------------------------|
B----------8------10------8-----------------------10--------------|
G-----------------------------------------12--------------12------|
D------10-----10------10------10------10------10------10------10--|
A---8-------------------------------------------------------------|
E-------------------------12------10------------------------------|


Verse

E-----------------8---------------------------8------------------|
B---------------------------------------8-----------8------------|
G----------9-------------9-----------9-----9-----9-----9---------|
D------10-----10-----10-----10-----------------------------------|
A--------------------------------10------------------------------|
E---8------------------------------------------------------------|


E-------------------------------------------------8--------------|
B------------------10--------------------------------------------|
G----------10--------------10--------------9-------------9-------|
D------10------10------10------10------10-----10-----10-----10---|
A---8------------------------------------------------------------|
E-----------------------------------8----------------------------|


E-----------------8---------------------------8------------------|
B---------------------------------------8-----------8------------|
G----------9-------------9-----------9-----9-----9-----9---------|
D------10-----10-----10-----10-----------------------------------|
A--------------------------------10------------------------------|
E---8------------------------------------------------------------|


E-----------------------------------------------8----------------|
B------------------10---------------------8-----------8----------|
G----------10--------------10----------9-----9-----9-----9-------|
D------10------10------10------10--------------------------------|
A---8-------------------------------8----------------------------|
E----------------------------------------------------------------|

Chorus

E--------------------------------------------7-------------------|
B----------------10----------------------------------------------|
G------7--10--7------7--10--7------7--10--7-----7--10--7---------|
D---7---------------------------7--------------------------------|
A----------------------------------------------------------------|
E----------------------------------------------------------------|


E-----------------8--------------------------5-------------------|
B--------------------------------------5-----------5-------------|
G----------9-------------9----------6-----6-----6-----6----------|
D------10-----10-----10-----10-----------------------------------|
A----------------------------------------------------------------|
E---8----------------------------5-------------------------------|


E--------------------------------------------7-------------------|
B----------------10--------------------8-----------8-------------|
G------7--10--7------7--10--7-------7-----7-----7-----7----------|
D---7------------------------------------------------------------|
A-------------------------------10-------------------------------|
E----------------------------------------------------------------|


E--------------------------------------------7-------------------|
B----------------10--------------------8-----------8-------------|
G------7--10--7------7--10--7-------7-----7-----7-----7----------|
D---7------------------------------------------------------------|
A-------------------------------10-------------------------------|
E----------------------------------------------------------------|
Tap to rate this tab
 
# A B C D E F G H I J K L M N O P Q R S T U V W X Y Z