Song name
# A B C D E F G H I J K L M N O P Q R S T U V W X Y Z

Scott Pilarczyk - Insomnia tab

Help us improve GuitareTab! Take a short survey!
Enter Shikari
Insomnia Cover
This is the cover they did on their last tour
its a very good cover it is
its bring released as a b-side to we can breath in space... on the 3rd of november
go and buy it yes (y)
any questions
myspace.com/lordy_yello

D flat


eb|-------------------------------------------------------------------------|
Bb|-------------------------------------------------------------------------|
Gb|-------------------------------------------------------------------------|
Db|-000---------------------------------------------------------------------|
Ab|-000---------------------------------------------------------------------|
Db|-000---X 24--------------------------------------------------------------|

On the 25th bit just let it ring out a few times
eb|-------------------------------------------------------------------------|
Bb|-------------------------------------------------------------------------|
Gb|-------------------------------------------------------------------------|
Db|-444444444444444333333333333333337777777777777777000000000000000---------|
Ab|-444444444444444333333333333333337777777777777777000000000000000---------|
Db|-444444444444444433333333333333337777777777777777000000000000000---------|

Then randommly let it ring out a few times
jsut before evrything comes it
rory goes
eb|-------------------------------------------------------------------------|
Bb|-------------------------------------------------------------------------|
Gb|-------------------------------------------------------------------------|
Db|-0---7---8---------------------------------------------------------------|
Ab|-0---7---8---------------------------------------------------------------|
Db|-0---7---8--X2-----------------------------------------------------------|

Then evrything comes in
eb|-------------------------------------------------------------------------|
Bb|-------------------------------------------------------------------------|
Gb|-------------------------------------------------------------------------|
Db|-0000-000000-7777-888888-------------------------------------------------|
Ab|-0000-000000-7777-888888-------------------------------------------------|
Db|-0000-000000-7777-888888-------------------------------------------------|

After a bit of this
this part comes in

eb|-------------------------------------------------------------------------|
Bb|-------------------------------------------------------------------------|
Gb|--------10--------10-10--------------------------------------------------|
Db|-000----14--------14-14---777777----88-----------------------------------|
Ab|-000----------------------777777----88-----------------------------------|
Db|-000--------00------------777777----88-----------------------------------|


Then for the breakdown bit

eb|-------------------------------------------------------------------------|
Bb|-------------------------------------------------------------------------|
Gb|-------------------------------------------------------------------------|
Db|-0000--------------------------------------------------------------------|
Ab|-0000--------------------------------------------------------------------|
Db|-0000--------------------------------------------------------------------|
just do that for ages pretty much
cheers(y)
Related for Insomnia tab