Guitaretab - guitar tabs
Song name
# A B C D E F G H I J K L M N O P Q R S T U V W X Y Z

Scott Walker - In My Room tab

-------------------------------------------------------------------------------
			    In My Room - Albert Hammond Jr
-------------------------------------------------------------------------------
Tabbed by: ben pattyson
Email: benpattyson@yahoo.com

Iím open to corrections, its not perfect. Cheers.

Intro

e|----------------------------------|
B|----------------------------------|
G|-7-7--7-7--7-7--7-7--7-7-7-7------| x3
D|-7-7--7-7--7-7--7-7--7-7-7-7------|
A|-5-5--5-5--5-5--5-5--5-5-5-5------|
E|----------------------------------|

e|----------------------------------|
B|----------------------------------|
G|-7-7--7-7--7-7--7-7--1010-12-12---|
D|-7-7--7-7--7-7--7-7--1010-12-12---|
A|-5-5--5-5--5-5--5-5--8-8--10-10---|
E|----------------------------------|

e|----------------------------------|
B|----------------------------------|
G|-7-7--7-7--7-7--7-7--7-7-7-7------| x2
D|-7-7--7-7--7-7--7-7--7-7-7-7------|
A|-5-5--5-5--5-5--5-5--5-5-5-5------|
E|----------------------------------|

(0:21)

e|-------------------------------------|
B|-------------------------------------|
G|-7-7-7-7-7-7--7--7--7-7-7-7-7-7--7---|
D|-------------------------------------|
A|-------------------------------------|
E|-------------------------------------|

e|----------------------------------|
B|----------------------------------|
G|-7-7--7-7--7-7--7-7--7-7-7-7------| x2
D|-7-7--7-7--7-7--7-7--7-7-7-7------|
A|-5-5--5-5--5-5--5-5--5-5-5-5------|
E|----------------------------------|

(0:35)

e|----------------------------------|
B|----------------------------------|
G|-7-7--7-7--7-7--7-7--7-7-7-7------|
D|-7-7--7-7--7-7--7-7--7-7-7-7------|
A|-5-5--5-5--5-5--5-5--5-5-5-5------|
E|----------------------------------|

e|----------------------------------|
B|----------------------------------|
G|-7-7--7-7--7-7--7-7--1010-12-12---|
D|-7-7--7-7--7-7--7-7--1010-12-12---|
A|-5-5--5-5--5-5--5-5--8-8--10-10---|
E|----------------------------------|

e|----------------------------------|
B|----------------------------------|
G|-7-7--7-7--7-7--7-7--7-7-7-7------| x2
D|-7-7--7-7--7-7--7-7--7-7-7-7------|
A|-5-5--5-5--5-5--5-5--5-5-5-5------|
E|----------------------------------|

(0:49)

e|-------------------------------------|
B|-------------------------------------|
G|-7-7-7-7-7-7--7--7--7-7-7-7-7-7--7---|
D|-------------------------------------|
A|-------------------------------------|
E|-------------------------------------|

e|----------------------------------|
B|----------------------------------|
G|-7-7--7-7--7-7--7-7--7-7-7-7------| x2
D|-7-7--7-7--7-7--7-7--7-7-7-7------|
A|-5-5--5-5--5-5--5-5--5-5-5-5------|
E|----------------------------------|

(1:07)

e|-------------------------------------------------------------------|
B|-7-7-7-7-7-7-7-7-7-7-7-7-7-7-7-7-----------------------------------|
G|-7-7-7-7-7-7-7-7-7-7-7-7-7-7-7-7--7-7-7-7-7-7-7-7-7-7-7-7-7-7-7-7--|
D|-7-7-7-7-7-7-7-7-7-7-7-7-7-7-7-7--9-9-9-9-9-9-9-9-9-9-9-9-9-9-9-9--|
A|-5-5-5-5-5-5-5-5-5-5-5-5-5-5-5-5--9-9-9-9-9-9-9-9-9-9-9-9-9-9-9-9--|
E|----------------------------------7-7-7-7-7-7-7-7-7-7-7-7-7-7-7-7--|

e|--------------------------------------------------------------|
B|--------------------------------------------------------------|
G|-4-4-4-4-4-4-4-4-4-4-4-4-4-4-4-4------------------------11s---|
D|-5-5-5-5-5-5-5-5-5-5-5-5-5-5-5-5----5----5-4----5----5--------|
A|-5-5-5-5-5-5-5-5-5-5-5-5-5-5-5-5--7----7------7----7----------|
E|-3-3-3-3-3-3-3-3-3-3-3-3-3-3-3-3------------------------------|
[ Tab from: http://www.guitaretab.com/s/scott-walker/167626.html ]
e|-------------------------------------------------------------------|
B|-7-7-7-7-7-7-7-7-7-7-7-7-7-7-7-7-----------------------------------|
G|-7-7-7-7-7-7-7-7-7-7-7-7-7-7-7-7--7-7-7-7-7-7-7-7-7-7-7-7-7-7-7-7--|
D|-7-7-7-7-7-7-7-7-7-7-7-7-7-7-7-7--9-9-9-9-9-9-9-9-9-9-9-9-9-9-9-9--|
A|-5-5-5-5-5-5-5-5-5-5-5-5-5-5-5-5--9-9-9-9-9-9-9-9-9-9-9-9-9-9-9-9--|
E|----------------------------------7-7-7-7-7-7-7-7-7-7-7-7-7-7-7-7--|

e|-----------------------------------14-----14-----14-----14-----14----|
B|-----------------------------------17b19r-17b19r-17b19r-17b19r-17b19-|
G|-4-4-4-4-4-4-4-4-4-4-4-4-4-4-4-4-------------------------------------|
D|-5-5-5-5-5-5-5-5-5-5-5-5-5-5-5-5-------------------------------------|
A|-5-5-5-5-5-5-5-5-5-5-5-5-5-5-5-5-------------------------------------|
E|-3-3-3-3-3-3-3-3-3-3-3-3-3-3-3-3-------------------------------------|

e|----------------------------------|
B|----------------------------------|
G|-7-7--7-7--7-7--7-7--7-7-7-7------| x2
D|-7-7--7-7--7-7--7-7--7-7-7-7------|
A|-5-5--5-5--5-5--5-5--5-5-5-5------|
E|----------------------------------|

(1:43)

e|----------------------------------------------------------------|
B|----------------------------------------------------------------|
G|-7---------------10-10-12-12-14-12-14-7----------------7--------|
D|-7---------------10-10-12-12-14-12-14-7------------------7------|
A|-5----------------8--8-10-10-12-10-12-5--------------------7----|
E|----------------------------------------------------------------|

e|-------------------------------------|
B|-------------------------------------|
G|-7-7-7-7-7-7--7--7--7-7-7-7-7-7--7---|
D|-------------------------------------|
A|-------------------------------------|
E|-------------------------------------|

e|----------------------------------|
B|----------------------------------|
G|-7-7--7-7--7-7--7-7--7-7-7-7------| x2
D|-7-7--7-7--7-7--7-7--7-7-7-7------|
A|-5-5--5-5--5-5--5-5--5-5-5-5------|
E|----------------------------------|

(2:14)

e|-------------------------------------------------------------------|
B|-7-7-7-7-7-7-7-7-7-7-7-7-7-7-7-7-----------------------------------|
G|-7-7-7-7-7-7-7-7-7-7-7-7-7-7-7-7--7-7-7-7-7-7-7-7-7-7-7-7-7-7-7-7--|
D|-7-7-7-7-7-7-7-7-7-7-7-7-7-7-7-7--9-9-9-9-9-9-9-9-9-9-9-9-9-9-9-9--|
A|-5-5-5-5-5-5-5-5-5-5-5-5-5-5-5-5--9-9-9-9-9-9-9-9-9-9-9-9-9-9-9-9--|
E|----------------------------------7-7-7-7-7-7-7-7-7-7-7-7-7-7-7-7--|

e|--------------------------------------------------------------|
B|--------------------------------------------------------------|
G|-4-4-4-4-4-4-4-4-4-4-4-4-4-4-4-4------------------------11s---|
D|-5-5-5-5-5-5-5-5-5-5-5-5-5-5-5-5----5----5-4----5----5--------|
A|-5-5-5-5-5-5-5-5-5-5-5-5-5-5-5-5--7----7------7----7----------|
E|-3-3-3-3-3-3-3-3-3-3-3-3-3-3-3-3------------------------------|

e|-------------------------------------------------------------------|
B|-7-7-7-7-7-7-7-7-7-7-7-7-7-7-7-7-----------------------------------|
G|-7-7-7-7-7-7-7-7-7-7-7-7-7-7-7-7--7-7-7-7-7-7-7-7-7-7-7-7-7-7-7-7--|
D|-7-7-7-7-7-7-7-7-7-7-7-7-7-7-7-7--9-9-9-9-9-9-9-9-9-9-9-9-9-9-9-9--|
A|-5-5-5-5-5-5-5-5-5-5-5-5-5-5-5-5--9-9-9-9-9-9-9-9-9-9-9-9-9-9-9-9--|
E|----------------------------------7-7-7-7-7-7-7-7-7-7-7-7-7-7-7-7--|

e|-----------------------------------14-----14-----14-----14-----14----|
B|-----------------------------------17b19r-17b19r-17b19r-17b19r-17b19-|
G|-4-4-4-4-4-4-4-4-4-4-4-4-4-4-4-4-------------------------------------|
D|-5-5-5-5-5-5-5-5-5-5-5-5-5-5-5-5-------------------------------------|
A|-5-5-5-5-5-5-5-5-5-5-5-5-5-5-5-5-------------------------------------|
E|-3-3-3-3-3-3-3-3-3-3-3-3-3-3-3-3-------------------------------------|

Repeat D/Bm/G/Em till end.


| s  slide
| b  bend
| r  release
Related for In My Room tab