Song name
# A B C D E F G H I J K L M N O P Q R S T U V W X Y Z

Scratch Track - Groove tab

   this song is pretty hard to play but the some practice it sounds awsome so here you go 


main riff- DROP D!!!
------------------------------------------------------------------------x0-]
------------------------------------------------------------------------x0-]
------------------------------------------------------------------------x0-]
--2-2---------------5p0--------------------5-5-5-5--5--4-4--4-4--3-3-3-3x0-]
--2-2-----5p0--7p0-------7p0--5p0--7-7-7---5-5-5-5--5--4-4--4-4--3-3-3-3x0-]
--2-2--------------------------------------5-5-5-5--5--4-4--4-4--3-3-3-3x0-]


chorus 

-----------------------------------------------------------------------]
-----------------------------------------------------------------------]
-----------------------------------------------------------------------]
-----------------------------------------------------------------------]
-------7-7-7-----------------------------------------------------------]
-2-2-2-------8-8-8-8-8-8-7-7-7-7-7-7--3-3-3-3-3-3----------------------]
Tap to rate this tab
# A B C D E F G H I J K L M N O P Q R S T U V W X Y Z