Song name
# A B C D E F G H I J K L M N O P Q R S T U V W X Y Z

Screeching Weasel - Hunter tab

Band: Screeching weasel
Song: Hunter

Tabber: John Cukras
email: riffreaper@yahoo.com

Tuning: Normal

Riff 1:
E---------------------------|
B---------------------------|
G---------------------------|
D---------------------------|
A----4-6-5-8-7-6------------|
E----2-4-3-6-5-4 x's 14-----|

End:
E---------------------------|
B---------------------------|
G---------------------------|
D---------------------------|
A----4----------------------|
E----2----------------------|

short song.
Tap to rate this tab
 
# A B C D E F G H I J K L M N O P Q R S T U V W X Y Z