Song name
# A B C D E F G H I J K L M N O P Q R S T U V W X Y Z

Screeching Weasel - Girl Next Door tab

Girl Next Door
Song and Lyrics By Ben Weasel and Screeching Weasel

Verse/ Intro:
-----------------------------------------------------------||
-----------------------------------------------------------||.
---------------4-4-4-4-4-4-4---------------5-5-5-5-5-5-5---||
-5-5-5-5-5-5-5-4-4-4-4-4-4-4-2-2-2-2-2-2-2-5-5-5-5-5-5-5---||
-5-5-5-5-5-5-5-2-2-2-2-2-2-2-2-2-2-2-2-2-2-3-3-3-3-3-3-3---||.
-3-3-3-3-3-3-3---------------0-0-0-0-0-0-0-----------------||

Solo Riff:
----------------||
----0-1-0-----3-||.
-0-2-----2-0-2--||
----------------||
----------------||.
----------------||


Chorus:
--------------------------------------------||
--------------------------------------------||.
---------------7-7-7-7-7-7-7-5-5-5-5-5-5-5--||
-5-5-5-5-5-5-5-7-7-7-7-7-7-7-5-5-5-5-5-5-5--||
-5-5-5-5-5-5-5-5-5-5-5-5-5-5-3-3-3-3-3-3-3--||.
-3-3-3-3-3-3-3------------------------------||


That should be pretty accurate, because it sounds exactly like the
recording.  Just listen to the song a few times and figure out what
everything goes in, because you need to learn to play by ear a little
bit.
Tap to rate this tab
 
# A B C D E F G H I J K L M N O P Q R S T U V W X Y Z