Song name
# A B C D E F G H I J K L M N O P Q R S T U V W X Y Z

Scripture Lullabies - The Peace Of God tab

Scripture Lullabies
http://www.scripture-lullabies.com/

The Peace of God
Written by: Jay Stocker
Performed by: Ben Glover
Album: "Hidden In My Heart Vol I"

INTRO:
  F    
E -----------|-----------|-----------|-----------|
B ----1----1-|----1------|----1----1-|----1------|
G -----------|---------2-|-----------|---------2-|
D -3----3----|-3----3----|-3----3----|-3----3----|
A -----------|-----------|-----------|-----------|
E -----------|-----------|-----------|-----------|

  F
E -----------|-----------|-----------|-----------|
B ----1----1-|----1------|----1----1-|----1------|
G -----------|---------2-|-----------|---------2-|
D -3----3----|-3----3----|-3----3----|-3----3----|
A -----------|-----------|-----------|-----------|
E -----------|-----------|-----------|-----------|

VERSE:
  F                       F  
E -----------|-----------|-----------|-----------|
B ----1----1-|----1------|----1----1-|----1------|
G -----------|---------2-|-----------|---------2-|
D -3----3----|-3----3----|-3----3----|-3----3----|
A -----------|-----------|-----------|-----------|
E -----------|-----------|-----------|-----------|
           Don't you worry         About   anything

  Dm7                     F
E -----------|-----------|-----------|-----------|
B ----1---1--|----1------|----1----1-|----1------|
G -----------|---------2-|-----------|---------2-|
D -0----0----|-0----0----|-3----3----|-3----3----|
A -----------|-----------|-----------|-----------|
E -----------|-----------|-----------|-----------|
         Instead  pray            About   everything

  Dm7
E ----------------|----------------|
B ----------------|----------------|
G ----2--------2--|-----2-------2--|
D -0-------0------|-0--------0-----|
A ----------------|----------------|
E ----------------|----------------|
      Tell God what you need

  Dm7                          F
E --------------|-------------|-----------|-----------|
B ----1-----1---|----1--------|----1----1-|----1------|
G --------------|----------2--|-----------|---------2-|
D -0-----0------|-0----0------|-3----3----|-3----3----|
A --------------|-------------|-----------|-----------|
E --------------|-------------|-----------|-----------|
  And thank Him for all He has     done

  F
E -----------|-----------|
B ----1----1-|----1------|
G -----------|---------2-|
D -3----3----|-3----3----|
A -----------|-----------|
E -----------|-----------|

REPEAT VERSE

CHORUS:
  Bb                  C            F            C
E -------------------|------------|------------|------------|
B --------3-----3----|-1-----1----|------------|-1-----1----|
G -------------------|------------|-2-----2----|------------|
D -----------3-----3-|----2-----2-|----3-----3-|----2-----2-|
A -------------------|------------|------------|------------|
E -------------------|------------|------------|------------|
  And the peace        of           God

  Bb                C            F            C
E -----------------|------------|------------|------------|
B ------3-----3----|-1-----1----|------------|-1-----1----|
G -----------------|------------|-2-----2----|------------|
D ---------3-----3-|----2-----2-|----3-----3-|----2-----2-|
A -----------------|------------|------------|------------|
E -----------------|------------|------------|------------|
  Far beyond what    we    can    under        stand  will  

  Bb                  C            F             C
E -------------------|------------|------------|--------------|
B --------3-----3----|-1-----1----|------------|---1-----1----|
G -------------------|------------|-2-----2----|--------------|
D -----------3-----3-|----2-----2-|----3-----3-|------2-----2-|
A -------------------|------------|------------|--------------|
E -------------------|------------|------------|--------------|
          guard        your         heart and your mind in Christ

  F
E ------------|------------|-----------|-----------|
B -1-----1----|-1-----1----|----1----1-|----1------|
G ------------|----------2-|-----------|---------2-|
D ----3-----3-|----3-------|-3----3----|-3----3----|
A ------------|------------|-----------|-----------|
E ------------|------------|-----------|-----------|
   Jesus

  F
E -----------|-----------|
B ----1----1-|----1------|
G -----------|---------2-|
D -3----3----|-3----3----|
A -----------|-----------|
E -----------|-----------|

REPEAT VERSE (skip last two measures)
REPEAT CHORUS

BRIDGE:
  Bb           C            F            C
E ------------|------------|------------|------------|
B -3-----3----|-1-----1----|------------|-1-----1----|
G ------------|------------|-2-----2----|------------|
D ----3-----3-|----2-----2-|----3-----3-|----2-----2-|
A ------------|------------|------------|------------|
E ------------|------------|------------|------------|

  Bb           C            F            C
E ------------|------------|------------|------------|
B -3-----3----|-1-----1----|------------|------------|
G ------------|------------|-2-----2----|-0-----0----|
D ----3-----3-|----2-----2-|----3-----3-|----2-----2-|
A ------------|------------|------------|------------|
E ------------|------------|------------|------------|

  Bb           C            F            C
E ------------|------------|------------|------------|
B -3-----3----|-1-----1----|------------|-1-----1----|
G ------------|------------|-2-----2----|------------|
D ----3-----3-|----2-----2-|----3-----3-|----2-----2-|
A ------------|------------|------------|------------|
E ------------|------------|------------|------------|

  F
E ------------|------------|-----------|-----------|
B -1-----1----|-1-----1----|----1----1-|----1------|
G ------------|----------2-|-----------|---------2-|
D ----3-----3-|----3-------|-3----3----|-3----3----|
A ------------|------------|-----------|-----------|
E ------------|------------|-----------|-----------|

REPEAT CHORUS
REPEAT INTRO as ending

Listen to the original recording here: http://www.scripture-lullabies.com/shop/home.php?cat=249
Tap to rate this tab
# A B C D E F G H I J K L M N O P Q R S T U V W X Y Z