Song name
# A B C D E F G H I J K L M N O P Q R S T U V W X Y Z

Sea Wolf - Black Dirt tab

ubi_rex@hotmail.com

*None of the chords are written relative to a capo at 4*
I only used a capo 4 because I think the beginning is awkward to play
without one.  I suggest you play the song with a capo at 4 for the
beginning, then right before the solo, throw off the capo.

You could leave it on, because the rest of the song
is played with barre chords above the 4th fret (and the solo doesn't
go below the 4th fret).  Just make sure to ignore your capo,
then, as nothing is written relative to it.

Play Em/Eb: X6998X, the rest are standard barre chords.

If you want chords relative to a capo on 4, make these changes
Em=Cm, Gsus2=Ebsus2, Dsus2=Bbsus2, B=G, A=F, D=Bb, Em/Eb=Cm/B

Capo 4                     No capo

Em     Gsus2 Dsus2 B       Em    Gsus2 Dsus2 B
-------------------------  -----------------------|
-------------------------  -0-0---3-3-------------|
--0-0---3-3--------------  --0-----2----2-2-------|
---1-----3----3-3---0-0--  2-----5-------2----4-4-|
-3-----6-------3-----2---  ------------5-------6--|
-------------6-----3-----  ------------------7----|

Em          Gsus2        Dsus2      B
here on the ground I can not hear a sound
       Em            Gsus2        Dsus2          B
just a strong steady rain getting louder as you sing
          Em          Gsus2          Dsus2          B
it may be true that I lied I broke a promise that I tried
       Em              Gsus2          Dsus2       B               Em
but my heart no longer beats my blood makes black dirt under your feet
                Em/Eb               D                    B
black dirt will stain your feet and when you walk you'll leave black
            Em (picking)
dirt in the street

 Em                        A
-----7--------7--------------------------------------------|
-5-8---8--5-8---8-5----------------------------------------|
---------------------7-9-7-6--4-6-4------------------------|
------------------------------------7--7-7-8-7-------------|
-----------------------------------------------------------|
-----------------------------------------------------------|
 Em                      A
-----7----8---7---8-7----8-10-12-12--12/13-12----15-15-15---|
-5-8----8---8---8-----8-------------------------------------|
------------------------------------------------------------|
------------------------------------------------------------|
------------------------------------------------------------|
------------------------------------------------------------|

Em                                 A
I could feel my face grow pa-a-a-a-a-a-a-a-a-a-ale
Em                               A
sick with fear my senses f-a-a-a-a-a-a-a-a-a-ail
           Em                            A
and as the life fades from my ey-ey-es I smile but don't know why-y-y
Em                                  A
legs are growing to the heat of the su-u-u-u-u-u-u-u-u-un
D                 B             Em
    and my heart     no longer beats
                Em/Eb               D                    B
black dirt will stain your feet and when you walk you'll leave black
            Em
dirt in the street

                              A
here on the ground I li-i-i-i-i-i-i-i-i-i-ie
Em                                  A
I cannot hear a sound as I di-i-i-i-i-i-i-i-i-i-ie
          Em                       A
it may be true that I lied broke a promise that I tried
       Em                              A
but my heart no longer beats, when you kill you'll only leave
D                 B             Em
    and my heart     no longer beats
                Em/Eb               D                    B
black dirt will stain your feet and when you walk you'll leave black
            Em
dirt in the street
                Em/Eb               D                    B
black dirt will stain your feet and when you walk you'll leave black
            Em
dirt in the street

Em A repeat and end on Em
Tap to rate this tab
# A B C D E F G H I J K L M N O P Q R S T U V W X Y Z