Song name
# A B C D E F G H I J K L M N O P Q R S T U V W X Y Z

Seals Dan - Addicted tab

key:

~ = let ring
x = mute

Intro/Verse riff:

E|---------------------|
B|---------------------|
G|---------------------|
D|---5-5-7-5-5-7-5-5-5-|
A|-0~------------------|
D|---------------------|
9
Verse/pre chorus riff (guitar 2)

E|---------------------|---------------------|
B|---------------------|---------------------|
G|---------------------|---------------------|
D|-3-3-x-3-x-3-3-x-3-x-|-5-5-x-5-x-5-5-x-5-x-|
A|-3-3-x-3-x-3-3-x-3-x-|-5-5-x-5-x-5-5-x-5-x-|
D|-3-3-x-3-x-3-3-x-3-x-|-5-5-x-5-x-5-5-x-5-x-|

Chorus:

E|-----------------------|-----------------------|
B|-----------------------|-----------------------|
G|-----------------------|-----------------------|
D|-7-x-x-x-7-x-x-x-7-x-x-|-3-x-x-x-3-x-x-x-3-x-x-|
A|-7-x-x-x-7-x-x-x-7-x-x-|-3-x-x-x-3-x-x-x-3-x-x-|
D|-7-x-x-x-7-x-x-x-7-x-x-|-3-x-x-x-3-x-x-x-3-x-x-|

E|-----------------------|-----------------------|
B|-----------------------|-----------------------|
G|-----------------------|-----------------------|
D|-0-x-x-x-0-x-x-x-0-x-x-|-3-x-x-x-5-x-x-x-5-x-x-|
A|-0-x-x-x-0-x-x-x-0-x-x-|-3-x-x-x-5-x-x-x-5-x-x-|
D|-0-x-x-x-0-x-x-x-0-x-x-|-3-x-x-x-5-x-x-x-5-x-x-|

Bridge:

(All palm muted)

E|---------------------------------|-------------------------------------------------|
B|---------------------------------|-------------------------------------------------|
G|---------------------------------|-------------------------------------------------|
D|-7-7-7-7-7-7-7-7-7-7-7-7-7-7-7-7-|-10-10-10-10-10-10-10-10-10-10-10-10-10-10-10-10-|
A|-7-7-7-7-7-7-7-7-7-7-7-7-7-7-7-7-|-10-10-10-10-10-10-10-10-10-10-10-10-10-10-10-10-|
D|-7-7-7-7-7-7-7-7-7-7-7-7-7-7-7-7-|-10-10-10-10-10-10-10-10-10-10-10-10-10-10-10-10-|


E|-------------------------------------------------|-------------------------------|
B|-------------------------------------------------|-------------------------------|
G|-10-10-10-10-10-10-10-10-10-10-10-10-10-10-10-10-|-12-12-12-12-12-12-12-12-12----|
D|-10-10-10-10-10-10-10-10-10-10-10-10-10-10-10-10-|-12-12-12-12-12-12-12-12-12----|
A|-8--8--8--8--8--8--8--8--8--8--8--8--8--8--8--8--|-10-10-10-10-10-10-10-10-10----|
D|-------------------------------------------------|-------------------------------|

-----------------------|
-----------------------|
12-12-12-12-12-12-12---|
12-12-12-12-12-12-12---|
10-10-10-10-10-10-10---|
-----------------------|
Tap to rate this tab
# A B C D E F G H I J K L M N O P Q R S T U V W X Y Z