Song name
# A B C D E F G H I J K L M N O P Q R S T U V W X Y Z

Seamless - Empire tab

-----------------------------------------------------------------------------
                             EMPIRE - SEAMLESSR
-----------------------------------------------------------------------------
Tabbed by: Liam Murphy (Guissok564)
E-mail: Guissok564@aol.com
SeamlessR's Soundcloud - https://soundcloud.com/seamlessr

Tuning: Standard with an F in the bass

e|---------------------------------------------------------------------------|
B|---------------------------------------------------------------------------|
G|--------10--10--10--10-----------------------10----------------------------|
D|--3--3--10--10--10--10--3--3--3--3--3--3--3--10--3--3----------------------|
A|--3--3--8---8---8---8---3--3--3--3--3--3--3--8---3--3----------------------|
F|--0--0------------------0--0--0--0--0--0--0------0--0----------------------|

e|---------------------------------------------------------------------------|
B|---------------------------------------------------------------------------|
G|--------10--10--10--10--------10--10--------11--11--11--11-----------------|
D|--3--3--10--10--10--10--3--3--10--10--3--3--11--11--11--11-----------------|
A|--3--3--8---8---8---8---3--3--8---8---3--3--9---9---9---9------------------|
F|--0--0------------------0--0----------0--0---------------------------------|




e|---------------------------------------------------------------------------|
B|---------------------------------------------------------------------------|
G|--------10--10--10--10-----------------------10----------------------------|
D|--3--3--10--10--10--10--3--3--3--3--3--3--3--10--3--3----------------------|
A|--3--3--8---8---8---8---3--3--3--3--3--3--3--8---3--3----------------------|
F|--0--0------------------0--0--0--0--0--0--0------0--0----------------------|



e|---------------------------------------------------------------------------|
B|---------------------------------------------------------------------------|
G|--------10--10--10--10----------------10-----------------------------------|
D|--3--3--10--10--10--10--3--3----------10--3--3-----------------------------|
A|--3--3--8---8---8---8---3--3----------8---3--3-----------------------------|
F|--0--0------------------0--0--10\0-0------0--0-----------------------------|

e|---------------------------------------------------------------------------|
B|---------------------------------------------------------------------------|
G|--------10--10--10--10-----------------------10----------------------------|
D|--3--3--10--10--10--10--3--3--3--3--3--3--3--10--3--3----------------------|
A|--3--3--8---8---8---8---3--3--3--3--3--3--3--8---3--3----------------------|
F|--0--0------------------0--0--0--0--0--0--0------0--0----------------------|



e|---------------------------------------------------------------------------|
B|---------------------------------------------------------------------------|
G|--------10--10--10--10--------10--10--------11--11--11--11-----------------|
D|--3--3--10--10--10--10--3--3--10--10--3--3--11--11--11--11-----------------|
A|--3--3--8---8---8---8---3--3--8---8---3--3--9---9---9---9------------------|
F|--0--0------------------0--0----------0--0---------------------------------|





e|---------------------------------------------------------------------------|
B|---------------------------------------------------------------------------|
G|--------10--10--10--10--------11--11--------12--12-------------------------|
D|--3--3--10--10--10--10--3--3--11--11--3--3--12--12-------------------------|
A|--3--3--8---8---8---8---3--3--9---9---3--3--10--10-------------------------|
F|--0--0------------------0--0----------0--0---------------------------------|




e|---------------------------------------------------------------------------|
B|---------------------------------------------------------------------------|
G|--------4--4--4--4--4--4---------------------------------------------------|
D|--3--3--4--4--4--4--4--4---------------------------------------------------|
A|--3--3--2--2--2--2--2--2---------------------------------------------------|
F|--0--0--------------------10\0--3\0--0-------------------------------------|


************************************

| /   slide up
| \   slide down
| h   hammer-on
| p   pull-off
| ~   vibrato
| +   harmonic
| x   Mute note
| b   Bend
| pb  Pre-bend
| br  Bend release
| pbr Pre-bend release
| brb Bend release bend

************************************
Tap to rate this tab
 
# A B C D E F G H I J K L M N O P Q R S T U V W X Y Z