Song name
# A B C D E F G H I J K L M N O P Q R S T U V W X Y Z

Search The City - Ambulance Chaser tab

e----------------------------------------------------------|
b------------11--------------------------------------------|
g-5-55--7h888--888-7h/p8-------8-----------333333----------|
d-5-55------------------8--8h10----555-666-666666-00000000-|
a-3-33-----------------------------555-666-666666-00000000-|
e----------------------------------333-444--------00000000-|
					          (Palm Mute)
e-----------------------------------------------|
b--------------16-------------------------------|
g-5-55-7h888/15-------8---------333333----------|
d-5-55------------8h10--555-666-666666-00000000-|
a-3-33------------------555-666-666666-00000000-|
e-----------------------333-444--------00000000-|
				       (PM----->)
Tap to rate this tab
 
# A B C D E F G H I J K L M N O P Q R S T U V W X Y Z